  0
SECTION
  2
HEADER
  9
$ACADVER
  1
AC1018
  9
$ACADMAINTVER
 70
     0
  9
$DWGCODEPAGE
  3
ANSI_1252
  9
$INSBASE
 10
0.0
 20
0.0
 30
0.0
  9
$EXTMIN
 10
1.000000000000000E+20
 20
1.000000000000000E+20
 30
1.000000000000000E+20
  9
$EXTMAX
 10
-1.000000000000000E+20
 20
-1.000000000000000E+20
 30
-1.000000000000000E+20
  9
$LIMMIN
 10
0.0
 20
0.0
  9
$LIMMAX
 10
12.0
 20
9.0
  9
$ORTHOMODE
 70
     0
  9
$REGENMODE
 70
     1
  9
$FILLMODE
 70
     1
  9
$QTEXTMODE
 70
     0
  9
$MIRRTEXT
 70
     1
  9
$LTSCALE
 40
1.0
  9
$ATTMODE
 70
     1
  9
$TEXTSIZE
 40
0.2
  9
$TRACEWID
 40
0.05
  9
$TEXTSTYLE
  7
Standard
  9
$CLAYER
  8
0
  9
$CELTYPE
  6
ByLayer
  9
$CECOLOR
 62
   256
  9
$CELTSCALE
 40
1.0
  9
$DISPSILH
 70
     0
  9
$DIMSCALE
 40
1.0
  9
$DIMASZ
 40
0.18
  9
$DIMEXO
 40
0.0625
  9
$DIMDLI
 40
0.38
  9
$DIMRND
 40
0.0
  9
$DIMDLE
 40
0.0
  9
$DIMEXE
 40
0.18
  9
$DIMTP
 40
0.0
  9
$DIMTM
 40
0.0
  9
$DIMTXT
 40
0.18
  9
$DIMCEN
 40
0.09
  9
$DIMTSZ
 40
0.0
  9
$DIMTOL
 70
     0
  9
$DIMLIM
 70
     0
  9
$DIMTIH
 70
     1
  9
$DIMTOH
 70
     1
  9
$DIMSE1
 70
     0
  9
$DIMSE2
 70
     0
  9
$DIMTAD
 70
     0
  9
$DIMZIN
 70
     0
  9
$DIMBLK
  1

  9
$DIMASO
 70
     1
  9
$DIMSHO
 70
     1
  9
$DIMPOST
  1

  9
$DIMAPOST
  1

  9
$DIMALT
 70
     0
  9
$DIMALTD
 70
     2
  9
$DIMALTF
 40
25.4
  9
$DIMLFAC
 40
1.0
  9
$DIMTOFL
 70
     0
  9
$DIMTVP
 40
0.0
  9
$DIMTIX
 70
     0
  9
$DIMSOXD
 70
     0
  9
$DIMSAH
 70
     0
  9
$DIMBLK1
  1

  9
$DIMBLK2
  1

  9
$DIMSTYLE
  2
Standard
  9
$DIMCLRD
 70
     0
  9
$DIMCLRE
 70
     0
  9
$DIMCLRT
 70
     0
  9
$DIMTFAC
 40
1.0
  9
$DIMGAP
 40
0.09
  9
$DIMJUST
 70
     0
  9
$DIMSD1
 70
     0
  9
$DIMSD2
 70
     0
  9
$DIMTOLJ
 70
     1
  9
$DIMTZIN
 70
     0
  9
$DIMALTZ
 70
     0
  9
$DIMALTTZ
 70
     0
  9
$DIMUPT
 70
     0
  9
$DIMDEC
 70
     4
  9
$DIMTDEC
 70
     4
  9
$DIMALTU
 70
     2
  9
$DIMALTTD
 70
     2
  9
$DIMTXSTY
  7
Standard
  9
$DIMAUNIT
 70
     0
  9
$DIMADEC
 70
     0
  9
$DIMALTRND
 40
0.0
  9
$DIMAZIN
 70
     0
  9
$DIMDSEP
 70
    46
  9
$DIMATFIT
 70
     3
  9
$DIMFRAC
 70
     0
  9
$DIMLDRBLK
  1

  9
$DIMLUNIT
 70
     2
  9
$DIMLWD
 70
    -2
  9
$DIMLWE
 70
    -2
  9
$DIMTMOVE
 70
     0
  9
$LUNITS
 70
     2
  9
$LUPREC
 70
     4
  9
$SKETCHINC
 40
0.1
  9
$FILLETRAD
 40
0.5
  9
$AUNITS
 70
     0
  9
$AUPREC
 70
     0
  9
$MENU
  1
.
  9
$ELEVATION
 40
0.0
  9
$PELEVATION
 40
0.0
  9
$THICKNESS
 40
0.0
  9
$LIMCHECK
 70
     0
  9
$CHAMFERA
 40
0.5
  9
$CHAMFERB
 40
0.5
  9
$CHAMFERC
 40
1.0
  9
$CHAMFERD
 40
0.0
  9
$SKPOLY
 70
     0
  9
$TDCREATE
 40
2458801.861816956
  9
$TDUCREATE
 40
2458801.320150289
  9
$TDUPDATE
 40
2458801.861816967
  9
$TDUUPDATE
 40
2458801.320150301
  9
$TDINDWG
 40
0.0000000116
  9
$TDUSRTIMER
 40
0.0000000116
  9
$USRTIMER
 70
     1
  9
$ANGBASE
 50
0.0
  9
$ANGDIR
 70
     0
  9
$PDMODE
 70
     0
  9
$PDSIZE
 40
0.0
  9
$PLINEWID
 40
0.0
  9
$SPLFRAME
 70
     0
  9
$SPLINETYPE
 70
     6
  9
$SPLINESEGS
 70
     8
  9
$HANDSEED
  5
51
  9
$SURFTAB1
 70
     6
  9
$SURFTAB2
 70
     6
  9
$SURFTYPE
 70
     6
  9
$SURFU
 70
     6
  9
$SURFV
 70
     6
  9
$UCSBASE
  2

  9
$UCSNAME
  2

  9
$UCSORG
 10
0.0
 20
0.0
 30
0.0
  9
$UCSXDIR
 10
1.0
 20
0.0
 30
0.0
  9
$UCSYDIR
 10
0.0
 20
1.0
 30
0.0
  9
$UCSORTHOREF
  2

  9
$UCSORTHOVIEW
 70
     0
  9
$UCSORGTOP
 10
0.0
 20
0.0
 30
0.0
  9
$UCSORGBOTTOM
 10
0.0
 20
0.0
 30
0.0
  9
$UCSORGLEFT
 10
0.0
 20
0.0
 30
0.0
  9
$UCSORGRIGHT
 10
0.0
 20
0.0
 30
0.0
  9
$UCSORGFRONT
 10
0.0
 20
0.0
 30
0.0
  9
$UCSORGBACK
 10
0.0
 20
0.0
 30
0.0
  9
$PUCSBASE
  2

  9
$PUCSNAME
  2

  9
$PUCSORG
 10
0.0
 20
0.0
 30
0.0
  9
$PUCSXDIR
 10
1.0
 20
0.0
 30
0.0
  9
$PUCSYDIR
 10
0.0
 20
1.0
 30
0.0
  9
$PUCSORTHOREF
  2

  9
$PUCSORTHOVIEW
 70
     0
  9
$PUCSORGTOP
 10
0.0
 20
0.0
 30
0.0
  9
$PUCSORGBOTTOM
 10
0.0
 20
0.0
 30
0.0
  9
$PUCSORGLEFT
 10
0.0
 20
0.0
 30
0.0
  9
$PUCSORGRIGHT
 10
0.0
 20
0.0
 30
0.0
  9
$PUCSORGFRONT
 10
0.0
 20
0.0
 30
0.0
  9
$PUCSORGBACK
 10
0.0
 20
0.0
 30
0.0
  9
$USERI1
 70
     0
  9
$USERI2
 70
     0
  9
$USERI3
 70
     0
  9
$USERI4
 70
     0
  9
$USERI5
 70
     0
  9
$USERR1
 40
0.0
  9
$USERR2
 40
0.0
  9
$USERR3
 40
0.0
  9
$USERR4
 40
0.0
  9
$USERR5
 40
0.0
  9
$WORLDVIEW
 70
     1
  9
$SHADEDGE
 70
     3
  9
$SHADEDIF
 70
    70
  9
$TILEMODE
 70
     1
  9
$MAXACTVP
 70
    64
  9
$PINSBASE
 10
0.0
 20
0.0
 30
0.0
  9
$PLIMCHECK
 70
     0
  9
$PEXTMIN
 10
1.000000000000000E+20
 20
1.000000000000000E+20
 30
1.000000000000000E+20
  9
$PEXTMAX
 10
-1.000000000000000E+20
 20
-1.000000000000000E+20
 30
-1.000000000000000E+20
  9
$PLIMMIN
 10
0.0
 20
0.0
  9
$PLIMMAX
 10
12.0
 20
9.0
  9
$UNITMODE
 70
     0
  9
$VISRETAIN
 70
     1
  9
$PLINEGEN
 70
     0
  9
$PSLTSCALE
 70
     1
  9
$TREEDEPTH
 70
  3020
  9
$CMLSTYLE
  2
Standard
  9
$CMLJUST
 70
     0
  9
$CMLSCALE
 40
1.0
  9
$PROXYGRAPHICS
 70
     1
  9
$MEASUREMENT
 70
     0
  9
$CELWEIGHT
370
    -1
  9
$ENDCAPS
280
     0
  9
$JOINSTYLE
280
     0
  9
$LWDISPLAY
290
     1
  9
$INSUNITS
 70
     1
  9
$HYPERLINKBASE
  1

  9
$STYLESHEET
  1

  9
$XEDIT
290
     1
  9
$CEPSNTYPE
380
     0
  9
$PSTYLEMODE
290
     1
  9
$FINGERPRINTGUID
  2
{0D021736-E5D8-4876-9142-F10F5D2FA3AF}
  9
$VERSIONGUID
  2
{FAEB1C32-E019-11D5-929B-00C0DF256EC4}
  9
$EXTNAMES
290
     1
  9
$PSVPSCALE
 40
0.0
  9
$OLESTARTUP
290
     0
  9
$SORTENTS
280
   127
  9
$INDEXCTL
280
     0
  9
$HIDETEXT
280
     1
  9
$XCLIPFRAME
290
     0
  9
$HALOGAP
280
     0
  9
$OBSCOLOR
 70
   257
  9
$OBSLTYPE
280
     0
  9
$INTERSECTIONDISPLAY
280
     0
  9
$INTERSECTIONCOLOR
 70
   257
  9
$DIMASSOC
280
     2
  9
$PROJECTNAME
  1

  0
ENDSEC
  0
SECTION
  2
CLASSES
  0
CLASS
  1
ACDBDICTIONARYWDFLT
  2
AcDbDictionaryWithDefault
  3
ObjectDBX Classes
 90
        0
 91
        3
280
     0
281
     0
  0
CLASS
  1
VISUALSTYLE
  2
AcDbVisualStyle
  3
ObjectDBX Classes
 90
     4095
 91
        3
280
     0
281
     0
  0
ENDSEC
  0
SECTION
  2
TABLES
  0
TABLE
  2
VPORT
  5
8
330
0
100
AcDbSymbolTable
 70
     1
  0
VPORT
  5
29
330
8
100
AcDbSymbolTableRecord
100
AcDbViewportTableRecord
  2
*Active
 70
     0
 10
0.0
 20
0.0
 11
1.0
 21
1.0
 12
0.0
 22
0.0
 13
0.0
 23
0.0
 14
0.5
 24
0.5
 15
0.5
 25
0.5
 16
0.0
 26
0.0
 36
1.0
 17
297.64013671875
 27
-420.94482421875
 37
0.0
 40
841.8896484375
 41
0.7070763662937379
 42
50.0
 43
0.0
 44
0.0
 50
0.0
 51
0.0
 71
     0
 72
   100
 73
     1
 74
     3
 75
     0
 76
     0
 77
     0
 78
     0
281
     0
 65
     1
110
0.0
120
0.0
130
0.0
111
1.0
121
0.0
131
0.0
112
0.0
122
1.0
132
0.0
 79
     0
146
0.0
  0
ENDTAB
  0
TABLE
  2
LTYPE
  5
5
330
0
100
AcDbSymbolTable
 70
     1
  0
LTYPE
  5
14
330
5
100
AcDbSymbolTableRecord
100
AcDbLinetypeTableRecord
  2
ByBlock
 70
     0
  3

 72
    65
 73
     0
 40
0.0
  0
LTYPE
  5
15
330
5
100
AcDbSymbolTableRecord
100
AcDbLinetypeTableRecord
  2
ByLayer
 70
     0
  3

 72
    65
 73
     0
 40
0.0
  0
LTYPE
  5
16
330
5
100
AcDbSymbolTableRecord
100
AcDbLinetypeTableRecord
  2
Continuous
 70
     0
  3
Solid line
 72
    65
 73
     0
 40
0.0
  0
ENDTAB
  0
TABLE
  2
LAYER
  5
2
330
0
100
AcDbSymbolTable
 70
     2
  0
LAYER
  5
10
330
2
100
AcDbSymbolTableRecord
100
AcDbLayerTableRecord
  2
0
 70
     0
 62
     7
  6
Continuous
370
    -3
390
F
  0
LAYER
  5
3B
330
2
100
AcDbSymbolTableRecord
100
AcDbLayerTableRecord
  2
Layer 1
 70
     0
 62
     7
  6
Continuous
370
    -3
390
F
  0
ENDTAB
  0
TABLE
  2
STYLE
  5
3
330
0
100
AcDbSymbolTable
 70
     1
  0
STYLE
  5
11
330
3
100
AcDbSymbolTableRecord
100
AcDbTextStyleTableRecord
  2
Standard
 70
     0
 40
0.0
 41
1.0
 50
0.0
 71
     0
 42
0.2
  3
txt
  4

  0
ENDTAB
  0
TABLE
  2
VIEW
  5
6
330
0
100
AcDbSymbolTable
 70
     0
  0
ENDTAB
  0
TABLE
  2
UCS
  5
7
330
0
100
AcDbSymbolTable
 70
     0
  0
ENDTAB
  0
TABLE
  2
APPID
  5
9
330
0
100
AcDbSymbolTable
 70
     1
  0
APPID
  5
12
330
9
100
AcDbSymbolTableRecord
100
AcDbRegAppTableRecord
  2
ACAD
 70
     0
  0
ENDTAB
  0
TABLE
  2
DIMSTYLE
  5
A
330
0
100
AcDbSymbolTable
 70
     1
100
AcDbDimStyleTable
  0
DIMSTYLE
105
27
330
A
100
AcDbSymbolTableRecord
100
AcDbDimStyleTableRecord
  2
Standard
 70
     0
340
11
  0
ENDTAB
  0
TABLE
  2
BLOCK_RECORD
  5
1
330
0
100
AcDbSymbolTable
 70
     2
  0
BLOCK_RECORD
  5
1F
330
1
100
AcDbSymbolTableRecord
100
AcDbBlockTableRecord
  2
*Model_Space
340
22
  0
BLOCK_RECORD
  5
1B
330
1
100
AcDbSymbolTableRecord
100
AcDbBlockTableRecord
  2
*Paper_Space
340
1E
  0
BLOCK_RECORD
  5
23
330
1
100
AcDbSymbolTableRecord
100
AcDbBlockTableRecord
  2
*Paper_Space0
340
26
  0
BLOCK_RECORD
  5
3C
330
1
100
AcDbSymbolTableRecord
100
AcDbBlockTableRecord
  2
block 2
340
0
102
{BLKREFS
331
3D
102
}
  0
ENDTAB
  0
ENDSEC
  0
SECTION
  2
BLOCKS
  0
BLOCK
  5
20
330
1F
100
AcDbEntity
  8
0
100
AcDbBlockBegin
  2
*Model_Space
 70
     0
 71
     0
 10
0.0
 20
0.0
 30
0.0
  3
*Model_Space
  1

  0
ENDBLK
  5
21
330
1F
100
AcDbEntity
  8
0
100
AcDbBlockEnd
  0
BLOCK
  5
1C
330
1B
100
AcDbEntity
 67
     1
  8
0
100
AcDbBlockBegin
  2
*Paper_Space
 70
     0
 71
     0
 10
0.0
 20
0.0
 30
0.0
  3
*Paper_Space
  1

  0
ENDBLK
  5
1D
330
1B
100
AcDbEntity
 67
     1
  8
0
100
AcDbBlockEnd
  0
BLOCK
  5
24
330
23
100
AcDbEntity
  8
0
100
AcDbBlockBegin
  2
*Paper_Space0
 70
     0
 71
     0
 10
0.0
 20
0.0
 30
0.0
  3
*Paper_Space0
  1

  0
ENDBLK
  5
25
330
23
100
AcDbEntity
  8
0
100
AcDbBlockEnd
  0
BLOCK
  5
3E
330
3C
100
AcDbEntity
  8
0
100
AcDbBlockBegin
  2
block 2
 70
     0
 71
     0
 10
0.0
 20
0.0
 30
0.0
  3
block 2
  1

  0
SPLINE
  5
40
330
3C
100
AcDbEntity
  8
Layer 1
370
     0
100
AcDbSpline
210
0.0
220
0.0
230
1.0
 70
    11
 71
     3
 72
   236
 73
   232
 74
     0
 42
0.0000000001
 43
0.0000000001
 40
0.0
 40
0.0
 40
0.0
 40
0.0
 40
1.0
 40
1.0
 40
1.0
 40
2.0
 40
2.0
 40
2.0
 40
3.0
 40
3.0
 40
3.0
 40
4.0
 40
4.0
 40
4.0
 40
5.0
 40
5.0
 40
5.0
 40
6.0
 40
6.0
 40
6.0
 40
7.0
 40
7.0
 40
7.0
 40
8.0
 40
8.0
 40
8.0
 40
9.0
 40
9.0
 40
9.0
 40
10.0
 40
10.0
 40
10.0
 40
11.0
 40
11.0
 40
11.0
 40
12.0
 40
12.0
 40
12.0
 40
13.0
 40
13.0
 40
13.0
 40
14.0
 40
14.0
 40
14.0
 40
15.0
 40
15.0
 40
15.0
 40
16.0
 40
16.0
 40
16.0
 40
17.0
 40
17.0
 40
17.0
 40
18.0
 40
18.0
 40
18.0
 40
19.0
 40
19.0
 40
19.0
 40
20.0
 40
20.0
 40
20.0
 40
21.0
 40
21.0
 40
21.0
 40
22.0
 40
22.0
 40
22.0
 40
23.0
 40
23.0
 40
23.0
 40
24.0
 40
24.0
 40
24.0
 40
25.0
 40
25.0
 40
25.0
 40
26.0
 40
26.0
 40
26.0
 40
27.0
 40
27.0
 40
27.0
 40
28.0
 40
28.0
 40
28.0
 40
29.0
 40
29.0
 40
29.0
 40
30.0
 40
30.0
 40
30.0
 40
31.0
 40
31.0
 40
31.0
 40
32.0
 40
32.0
 40
32.0
 40
33.0
 40
33.0
 40
33.0
 40
34.0
 40
34.0
 40
34.0
 40
35.0
 40
35.0
 40
35.0
 40
36.0
 40
36.0
 40
36.0
 40
37.0
 40
37.0
 40
37.0
 40
38.0
 40
38.0
 40
38.0
 40
39.0
 40
39.0
 40
39.0
 40
40.0
 40
40.0
 40
40.0
 40
41.0
 40
41.0
 40
41.0
 40
42.0
 40
42.0
 40
42.0
 40
43.0
 40
43.0
 40
43.0
 40
44.0
 40
44.0
 40
44.0
 40
45.0
 40
45.0
 40
45.0
 40
46.0
 40
46.0
 40
46.0
 40
47.0
 40
47.0
 40
47.0
 40
48.0
 40
48.0
 40
48.0
 40
49.0
 40
49.0
 40
49.0
 40
50.0
 40
50.0
 40
50.0
 40
51.0
 40
51.0
 40
51.0
 40
52.0
 40
52.0
 40
52.0
 40
53.0
 40
53.0
 40
53.0
 40
54.0
 40
54.0
 40
54.0
 40
55.0
 40
55.0
 40
55.0
 40
56.0
 40
56.0
 40
56.0
 40
57.0
 40
57.0
 40
57.0
 40
58.0
 40
58.0
 40
58.0
 40
59.0
 40
59.0
 40
59.0
 40
60.0
 40
60.0
 40
60.0
 40
61.0
 40
61.0
 40
61.0
 40
62.0
 40
62.0
 40
62.0
 40
63.0
 40
63.0
 40
63.0
 40
64.0
 40
64.0
 40
64.0
 40
65.0
 40
65.0
 40
65.0
 40
66.0
 40
66.0
 40
66.0
 40
67.0
 40
67.0
 40
67.0
 40
68.0
 40
68.0
 40
68.0
 40
69.0
 40
69.0
 40
69.0
 40
70.0
 40
70.0
 40
70.0
 40
71.0
 40
71.0
 40
71.0
 40
72.0
 40
72.0
 40
72.0
 40
73.0
 40
73.0
 40
73.0
 40
74.0
 40
74.0
 40
74.0
 40
75.0
 40
75.0
 40
75.0
 40
76.0
 40
76.0
 40
76.0
 40
77.0
 40
77.0
 40
77.0
 40
77.0
 10
61.35693359375
 20
-19.33154296875
 30
0.0
 10
54.380859375
 20
-24.1103515625
 30
0.0
 10
46.642578125
 20
-28.74365234375
 30
0.0
 10
41.61279296875
 20
-35.7314453125
 30
0.0
 10
38.3359375
 20
-40.28515625
 30
0.0
 10
34.8388671875
 20
-44.73046875
 30
0.0
 10
32.04248046875
 20
-49.564453125
 30
0.0
 10
28.98828125
 20
-54.8427734375
 30
0.0
 10
26.708984375
 20
-60.52734375
 30
0.0
 10
24.79541015625
 20
-66.306640625
 30
0.0
 10
22.7958984375
 20
-72.345703125
 30
0.0
 10
21.18017578125
 20
-78.48828125
 30
0.0
 10
20.23291015625
 20
-84.7841796875
 30
0.0
 10
18.314453125
 20
-97.53125
 30
0.0
 10
18.4404296875
 20
-110.666015625
 30
0.0
 10
20.57861328125
 20
-123.3720703125
 30
0.0
 10
21.501953125
 20
-128.8564453125
 30
0.0
 10
22.8408203125
 20
-134.27734375
 30
0.0
 10
24.7333984375
 20
-139.5107421875
 30
0.0
 10
26.771484375
 20
-145.1484375
 30
0.0
 10
28.56201171875
 20
-150.8857421875
 30
0.0
 10
31.001953125
 20
-156.369140625
 30
0.0
 10
33.42138671875
 20
-161.8056640625
 30
0.0
 10
36.8349609375
 20
-166.669921875
 30
0.0
 10
39.8642578125
 20
-171.767578125
 30
0.0
 10
43.1533203125
 20
-177.302734375
 30
0.0
 10
47.30419921875
 20
-182.20703125
 30
0.0
 10
51.72021484375
 20
-186.85546875
 30
0.0
 10
55.11376953125
 20
-190.427734375
 30
0.0
 10
58.802734375
 20
-193.7509765625
 30
0.0
 10
62.5693359375
 20
-196.9462890625
 30
0.0
 10
66.07666015625
 20
-199.919921875
 30
0.0
 10
69.7978515625
 20
-202.662109375
 30
0.0
 10
73.54638671875
 20
-205.3408203125
 30
0.0
 10
75.462890625
 20
-206.7099609375
 30
0.0
 10
77.6552734375
 20
-207.69921875
 30
0.0
 10
79.70654296875
 20
-208.888671875
 30
0.0
 10
81.31591796875
 20
-209.822265625
 30
0.0
 10
82.84814453125
 20
-210.9013671875
 30
0.0
 10
84.517578125
 20
-211.70703125
 30
0.0
 10
85.33203125
 20
-212.0986328125
 30
0.0
 10
87.0029296875
 20
-212.4697265625
 30
0.0
 10
87.34326171875
 20
-211.306640625
 30
0.0
 10
87.72021484375
 20
-210.017578125
 30
0.0
 10
87.36962890625
 20
-208.7001953125
 30
0.0
 10
87.36865234375
 20
-207.4033203125
 30
0.0
 10
87.3603515625
 20
-154.69921875
 30
0.0
 10
87.3603515625
 20
-101.994140625
 30
0.0
 10
87.3603515625
 20
-49.291015625
 30
0.0
 10
87.3603515625
 20
-46.1357421875
 30
0.0
 10
88.01318359375
 20
-45.1455078125
 30
0.0
 10
91.2177734375
 20
-44.462890625
 30
0.0
 10
96.74365234375
 20
-43.2861328125
 30
0.0
 10
102.33203125
 20
-42.1171875
 30
0.0
 10
107.97705078125
 20
-41.71484375
 30
0.0
 10
110.673828125
 20
-41.521484375
 30
0.0
 10
113.427734375
 20
-41.3349609375
 30
0.0
 10
116.1318359375
 20
-41.3740234375
 30
0.0
 10
117.9287109375
 20
-41.3994140625
 30
0.0
 10
118.1357421875
 20
-42.4072265625
 30
0.0
 10
118.1357421875
 20
-44.0224609375
 30
0.0
 10
118.13623046875
 20
-71.6962890625
 30
0.0
 10
118.1357421875
 20
-99.3701171875
 30
0.0
 10
118.13525390625
 20
-127.044921875
 30
0.0
 10
118.13525390625
 20
-129.8828125
 30
0.0
 10
118.369140625
 20
-130.115234375
 30
0.0
 10
121.23388671875
 20
-130.115234375
 30
0.0
 10
147.8837890625
 20
-130.11328125
 30
0.0
 10
174.533203125
 20
-130.111328125
 30
0.0
 10
201.18359375
 20
-130.109375
 30
0.0
 10
227.7587890625
 20
-130.107421875
 30
0.0
 10
254.3349609375
 20
-130.025390625
 30
0.0
 10
280.91015625
 20
-130.1123046875
 30
0.0
 10
282.73046875
 20
-130.1181640625
 30
0.0
 10
284.537109375
 20
-130.1064453125
 30
0.0
 10
286.349609375
 20
-130.267578125
 30
0.0
 10
286.36328125
 20
-130.4130859375
 30
0.0
 10
286.376953125
 20
-130.55859375
 30
0.0
 10
286.392578125
 20
-130.705078125
 30
0.0
 10
281.4599609375
 20
-131.8994140625
 30
0.0
 10
276.552734375
 20
-133.029296875
 30
0.0
 10
271.564453125
 20
-133.9775390625
 30
0.0
 10
266.38671875
 20
-134.9619140625
 30
0.0
 10
261.2021484375
 20
-135.916015625
 30
0.0
 10
256.03515625
 20
-136.95703125
 30
0.0
 10
252.896484375
 20
-137.587890625
 30
0.0
 10
249.841796875
 20
-138.6181640625
 30
0.0
 10
246.701171875
 20
-139.23828125
 30
0.0
 10
240.513671875
 20
-140.4619140625
 30
0.0
 10
234.2734375
 20
-141.4296875
 30
0.0
 10
228.091796875
 20
-142.68359375
 30
0.0
 10
222.41796875
 20
-143.83203125
 30
0.0
 10
216.810546875
 20
-145.291015625
 30
0.0
 10
211.146484375
 20
-146.4765625
 30
0.0
 10
205.5234375
 20
-147.654296875
 30
0.0
 10
199.869140625
 20
-148.677734375
 30
0.0
 10
194.22265625
 20
-149.73828125
 30
0.0
 10
192.55078125
 20
-150.052734375
 30
0.0
 10
191.86328125
 20
-151.5927734375
 30
0.0
 10
191.982421875
 20
-153.814453125
 30
0.0
 10
192.181640625
 20
-157.5478515625
 30
0.0
 10
192.005859375
 20
-161.2900390625
 30
0.0
 10
192.005859375
 20
-165.025390625
 30
0.0
 10
192.00390625
 20
-187.91796875
 30
0.0
 10
192.005859375
 20
-210.810546875
 30
0.0
 10
192.00390625
 20
-233.7041015625
 30
0.0
 10
192.00390625
 20
-236.87890625
 30
0.0
 10
192.185546875
 20
-240.068359375
 30
0.0
 10
191.927734375
 20
-243.2236328125
 30
0.0
 10
191.75
 20
-245.3984375
 30
0.0
 10
191.201171875
 20
-247.619140625
 30
0.0
 10
190.3828125
 20
-249.6484375
 30
0.0
 10
188.9462890625
 20
-253.212890625
 30
0.0
 10
185.841796875
 20
-255.017578125
 30
0.0
 10
182.197265625
 20
-255.615234375
 30
0.0
 10
179.033203125
 20
-256.134765625
 30
0.0
 10
175.78125
 20
-256.310546875
 30
0.0
 10
172.56640625
 20
-256.3154296875
 30
0.0
 10
169.4091796875
 20
-256.3203125
 30
0.0
 10
166.2421875
 20
-255.98828125
 30
0.0
 10
163.09814453125
 20
-255.6376953125
 30
0.0
 10
162.58447265625
 20
-255.5810546875
 30
0.0
 10
162.19287109375
 20
-255.025390625
 30
0.0
 10
161.9111328125
 20
-254.6484375
 30
0.0
 10
161.455078125
 20
-254.037109375
 30
0.0
 10
161.54296875
 20
-253.7578125
 30
0.0
 10
161.54296875
 20
-253.0322265625
 30
0.0
 10
161.54443359375
 20
-226.4462890625
 30
0.0
 10
161.53759765625
 20
-199.861328125
 30
0.0
 10
161.556640625
 20
-173.275390625
 30
0.0
 10
161.55810546875
 20
-170.6171875
 30
0.0
 10
161.560546875
 20
-167.9580078125
 30
0.0
 10
161.56298828125
 20
-165.2998046875
 30
0.0
 10
161.56494140625
 20
-163.017578125
 30
0.0
 10
161.845703125
 20
-160.548828125
 30
0.0
 10
161.5
 20
-158.2880859375
 30
0.0
 10
161.29052734375
 20
-156.9189453125
 30
0.0
 10
160.01220703125
 20
-157.033203125
 30
0.0
 10
158.90087890625
 20
-157.166015625
 30
0.0
 10
156.302734375
 20
-157.4765625
 30
0.0
 10
153.8154296875
 20
-158.31640625
 30
0.0
 10
151.255859375
 20
-158.82421875
 30
0.0
 10
147.0556640625
 20
-159.658203125
 30
0.0
 10
142.826171875
 20
-160.34765625
 30
0.0
 10
138.6328125
 20
-161.212890625
 30
0.0
 10
134.9453125
 20
-161.97265625
 30
0.0
 10
131.29931640625
 20
-162.921875
 30
0.0
 10
127.62060546875
 20
-163.7265625
 30
0.0
 10
125.52734375
 20
-164.18359375
 30
0.0
 10
123.408203125
 20
-164.5107421875
 30
0.0
 10
121.31591796875
 20
-164.9716796875
 30
0.0
 10
120.3349609375
 20
-165.1884765625
 30
0.0
 10
119.48779296875
 20
-165.2978515625
 30
0.0
 10
118.8359375
 20
-166.1171875
 30
0.0
 10
118.59716796875
 20
-166.4169921875
 30
0.0
 10
118.39013671875
 20
-166.740234375
 30
0.0
 10
118.177734375
 20
-167.05859375
 30
0.0
 10
117.93359375
 20
-167.4248046875
 30
0.0
 10
118.13525390625
 20
-167.982421875
 30
0.0
 10
118.13525390625
 20
-168.384765625
 30
0.0
 10
118.1357421875
 20
-196.62109375
 30
0.0
 10
118.1357421875
 20
-224.8583984375
 30
0.0
 10
118.13671875
 20
-253.09375
 30
0.0
 10
118.13671875
 20
-253.7255859375
 30
0.0
 10
118.2158203125
 20
-254.6962890625
 30
0.0
 10
117.72314453125
 20
-255.1923828125
 30
0.0
 10
117.19482421875
 20
-255.7255859375
 30
0.0
 10
116.12841796875
 20
-255.4716796875
 30
0.0
 10
115.4892578125
 20
-255.373046875
 30
0.0
 10
112.21142578125
 20
-254.8671875
 30
0.0
 10
108.91162109375
 20
-254.462890625
 30
0.0
 10
105.6806640625
 20
-253.697265625
 30
0.0
 10
101.80322265625
 20
-252.779296875
 30
0.0
 10
97.94677734375
 20
-251.775390625
 30
0.0
 10
94.11083984375
 20
-250.6982421875
 30
0.0
 10
92.296875
 20
-250.189453125
 30
0.0
 10
90.44970703125
 20
-249.724609375
 30
0.0
 10
88.68017578125
 20
-249.0751953125
 30
0.0
 10
86.87939453125
 20
-248.4140625
 30
0.0
 10
85.16015625
 20
-247.55859375
 30
0.0
 10
83.40576171875
 20
-246.7890625
 30
0.0
 10
80.71728515625
 20
-245.611328125
 30
0.0
 10
77.92626953125
 20
-244.587890625
 30
0.0
 10
75.404296875
 20
-243.1220703125
 30
0.0
 10
70.45849609375
 20
-240.2470703125
 30
0.0
 10
65.65869140625
 20
-237.125
 30
0.0
 10
60.81591796875
 20
-234.0791015625
 30
0.0
 10
56.41259765625
 20
-231.310546875
 30
0.0
 10
52.53271484375
 20
-227.892578125
 30
0.0
 10
48.7216796875
 20
-224.4013671875
 30
0.0
 10
39.341796875
 20
-215.8076171875
 30
0.0
 10
31.6005859375
 20
-205.8701171875
 30
0.0
 10
25.234375
 20
-194.990234375
 30
0.0
 10
21.3935546875
 20
-188.42578125
 30
0.0
 10
18.28271484375
 20
-181.4130859375
 30
0.0
 10
15.26318359375
 20
-174.42578125
 30
0.0
 10
13.12255859375
 20
-169.47265625
 30
0.0
 10
11.37451171875
 20
-164.3017578125
 30
0.0
 10
10.0087890625
 20
-159.0859375
 30
0.0
 10
8.3759765625
 20
-152.849609375
 30
0.0
 10
7.25390625
 20
-146.49609375
 30
0.0
 10
6.0234375
 20
-140.171875
 30
0.0
 10
4.783203125
 20
-133.7978515625
 30
0.0
 10
4.08984375
 20
-127.341796875
 30
0.0
 10
3.890625
 20
-120.8505859375
 30
0.0
 10
3.4931640625
 20
-107.8671875
 30
0.0
 10
4.9560546875
 20
-94.85546875
 30
0.0
 10
7.90673828125
 20
-82.2119140625
 30
0.0
 10
9.30224609375
 20
-76.2333984375
 30
0.0
 10
11.09228515625
 20
-70.3349609375
 30
0.0
 10
13.48779296875
 20
-64.6767578125
 30
0.0
 10
15.82568359375
 20
-59.1533203125
 30
0.0
 10
18.81884765625
 20
-54.0078125
 30
0.0
 10
22.12353515625
 20
-49.0126953125
 30
0.0
 10
28.75927734375
 20
-38.982421875
 30
0.0
 10
37.658203125
 20
-30.32861328125
 30
0.0
 10
48.3037109375
 20
-24.62451171875
 30
0.0
 10
50.3623046875
 20
-23.521484375
 30
0.0
 10
52.462890625
 20
-22.5
 30
0.0
 10
54.56884765625
 20
-21.49169921875
 30
0.0
 10
55.64599609375
 20
-20.97607421875
 30
0.0
 10
56.716796875
 20
-20.38427734375
 30
0.0
 10
57.84716796875
 20
-19.99267578125
 30
0.0
 10
58.93798828125
 20
-19.61474609375
 30
0.0
 10
60.07568359375
 20
-19.400390625
 30
0.0
 10
61.18115234375
 20
-19.07275390625
 30
0.0
 10
61.23974609375
 20
-19.1591796875
 30
0.0
 10
61.29833984375
 20
-19.2451171875
 30
0.0
 10
61.35693359375
 20
-19.33154296875
 30
0.0
 10
58.30126953125
 20
-21.4248046875
 30
0.0
 10
61.29833984375
 20
-19.2451171875
 30
0.0
 10
61.35693359375
 20
-19.33154296875
 30
0.0
  0
HATCH
  5
41
330
3C
100
AcDbEntity
  8
Layer 1
 62
     7
420
 16777215
100
AcDbHatch
 10
0.0
 20
0.0
 30
0.0
210
0.0
220
0.0
230
1.0
  2
SOLID
 70
     1
 71
     0
 91
        1
 92
        1
 93
        1
 72
     4
 94
        3
 73
     0
 74
     1
 95
      236
 96
      232
 40
0.0
 40
0.0
 40
0.0
 40
0.0
 40
1.0
 40
1.0
 40
1.0
 40
2.0
 40
2.0
 40
2.0
 40
3.0
 40
3.0
 40
3.0
 40
4.0
 40
4.0
 40
4.0
 40
5.0
 40
5.0
 40
5.0
 40
6.0
 40
6.0
 40
6.0
 40
7.0
 40
7.0
 40
7.0
 40
8.0
 40
8.0
 40
8.0
 40
9.0
 40
9.0
 40
9.0
 40
10.0
 40
10.0
 40
10.0
 40
11.0
 40
11.0
 40
11.0
 40
12.0
 40
12.0
 40
12.0
 40
13.0
 40
13.0
 40
13.0
 40
14.0
 40
14.0
 40
14.0
 40
15.0
 40
15.0
 40
15.0
 40
16.0
 40
16.0
 40
16.0
 40
17.0
 40
17.0
 40
17.0
 40
18.0
 40
18.0
 40
18.0
 40
19.0
 40
19.0
 40
19.0
 40
20.0
 40
20.0
 40
20.0
 40
21.0
 40
21.0
 40
21.0
 40
22.0
 40
22.0
 40
22.0
 40
23.0
 40
23.0
 40
23.0
 40
24.0
 40
24.0
 40
24.0
 40
25.0
 40
25.0
 40
25.0
 40
26.0
 40
26.0
 40
26.0
 40
27.0
 40
27.0
 40
27.0
 40
28.0
 40
28.0
 40
28.0
 40
29.0
 40
29.0
 40
29.0
 40
30.0
 40
30.0
 40
30.0
 40
31.0
 40
31.0
 40
31.0
 40
32.0
 40
32.0
 40
32.0
 40
33.0
 40
33.0
 40
33.0
 40
34.0
 40
34.0
 40
34.0
 40
35.0
 40
35.0
 40
35.0
 40
36.0
 40
36.0
 40
36.0
 40
37.0
 40
37.0
 40
37.0
 40
38.0
 40
38.0
 40
38.0
 40
39.0
 40
39.0
 40
39.0
 40
40.0
 40
40.0
 40
40.0
 40
41.0
 40
41.0
 40
41.0
 40
42.0
 40
42.0
 40
42.0
 40
43.0
 40
43.0
 40
43.0
 40
44.0
 40
44.0
 40
44.0
 40
45.0
 40
45.0
 40
45.0
 40
46.0
 40
46.0
 40
46.0
 40
47.0
 40
47.0
 40
47.0
 40
48.0
 40
48.0
 40
48.0
 40
49.0
 40
49.0
 40
49.0
 40
50.0
 40
50.0
 40
50.0
 40
51.0
 40
51.0
 40
51.0
 40
52.0
 40
52.0
 40
52.0
 40
53.0
 40
53.0
 40
53.0
 40
54.0
 40
54.0
 40
54.0
 40
55.0
 40
55.0
 40
55.0
 40
56.0
 40
56.0
 40
56.0
 40
57.0
 40
57.0
 40
57.0
 40
58.0
 40
58.0
 40
58.0
 40
59.0
 40
59.0
 40
59.0
 40
60.0
 40
60.0
 40
60.0
 40
61.0
 40
61.0
 40
61.0
 40
62.0
 40
62.0
 40
62.0
 40
63.0
 40
63.0
 40
63.0
 40
64.0
 40
64.0
 40
64.0
 40
65.0
 40
65.0
 40
65.0
 40
66.0
 40
66.0
 40
66.0
 40
67.0
 40
67.0
 40
67.0
 40
68.0
 40
68.0
 40
68.0
 40
69.0
 40
69.0
 40
69.0
 40
70.0
 40
70.0
 40
70.0
 40
71.0
 40
71.0
 40
71.0
 40
72.0
 40
72.0
 40
72.0
 40
73.0
 40
73.0
 40
73.0
 40
74.0
 40
74.0
 40
74.0
 40
75.0
 40
75.0
 40
75.0
 40
76.0
 40
76.0
 40
76.0
 40
77.0
 40
77.0
 40
77.0
 40
77.0
 10
61.35693359375
 20
-19.33154296875
 10
54.380859375
 20
-24.1103515625
 10
46.642578125
 20
-28.74365234375
 10
41.61279296875
 20
-35.7314453125
 10
38.3359375
 20
-40.28515625
 10
34.8388671875
 20
-44.73046875
 10
32.04248046875
 20
-49.564453125
 10
28.98828125
 20
-54.8427734375
 10
26.708984375
 20
-60.52734375
 10
24.79541015625
 20
-66.306640625
 10
22.7958984375
 20
-72.345703125
 10
21.18017578125
 20
-78.48828125
 10
20.23291015625
 20
-84.7841796875
 10
18.314453125
 20
-97.53125
 10
18.4404296875
 20
-110.666015625
 10
20.57861328125
 20
-123.3720703125
 10
21.501953125
 20
-128.8564453125
 10
22.8408203125
 20
-134.27734375
 10
24.7333984375
 20
-139.5107421875
 10
26.771484375
 20
-145.1484375
 10
28.56201171875
 20
-150.8857421875
 10
31.001953125
 20
-156.369140625
 10
33.42138671875
 20
-161.8056640625
 10
36.8349609375
 20
-166.669921875
 10
39.8642578125
 20
-171.767578125
 10
43.1533203125
 20
-177.302734375
 10
47.30419921875
 20
-182.20703125
 10
51.72021484375
 20
-186.85546875
 10
55.11376953125
 20
-190.427734375
 10
58.802734375
 20
-193.7509765625
 10
62.5693359375
 20
-196.9462890625
 10
66.07666015625
 20
-199.919921875
 10
69.7978515625
 20
-202.662109375
 10
73.54638671875
 20
-205.3408203125
 10
75.462890625
 20
-206.7099609375
 10
77.6552734375
 20
-207.69921875
 10
79.70654296875
 20
-208.888671875
 10
81.31591796875
 20
-209.822265625
 10
82.84814453125
 20
-210.9013671875
 10
84.517578125
 20
-211.70703125
 10
85.33203125
 20
-212.0986328125
 10
87.0029296875
 20
-212.4697265625
 10
87.34326171875
 20
-211.306640625
 10
87.72021484375
 20
-210.017578125
 10
87.36962890625
 20
-208.7001953125
 10
87.36865234375
 20
-207.4033203125
 10
87.3603515625
 20
-154.69921875
 10
87.3603515625
 20
-101.994140625
 10
87.3603515625
 20
-49.291015625
 10
87.3603515625
 20
-46.1357421875
 10
88.01318359375
 20
-45.1455078125
 10
91.2177734375
 20
-44.462890625
 10
96.74365234375
 20
-43.2861328125
 10
102.33203125
 20
-42.1171875
 10
107.97705078125
 20
-41.71484375
 10
110.673828125
 20
-41.521484375
 10
113.427734375
 20
-41.3349609375
 10
116.1318359375
 20
-41.3740234375
 10
117.9287109375
 20
-41.3994140625
 10
118.1357421875
 20
-42.4072265625
 10
118.1357421875
 20
-44.0224609375
 10
118.13623046875
 20
-71.6962890625
 10
118.1357421875
 20
-99.3701171875
 10
118.13525390625
 20
-127.044921875
 10
118.13525390625
 20
-129.8828125
 10
118.369140625
 20
-130.115234375
 10
121.23388671875
 20
-130.115234375
 10
147.8837890625
 20
-130.11328125
 10
174.533203125
 20
-130.111328125
 10
201.18359375
 20
-130.109375
 10
227.7587890625
 20
-130.107421875
 10
254.3349609375
 20
-130.025390625
 10
280.91015625
 20
-130.1123046875
 10
282.73046875
 20
-130.1181640625
 10
284.537109375
 20
-130.1064453125
 10
286.349609375
 20
-130.267578125
 10
286.36328125
 20
-130.4130859375
 10
286.376953125
 20
-130.55859375
 10
286.392578125
 20
-130.705078125
 10
281.4599609375
 20
-131.8994140625
 10
276.552734375
 20
-133.029296875
 10
271.564453125
 20
-133.9775390625
 10
266.38671875
 20
-134.9619140625
 10
261.2021484375
 20
-135.916015625
 10
256.03515625
 20
-136.95703125
 10
252.896484375
 20
-137.587890625
 10
249.841796875
 20
-138.6181640625
 10
246.701171875
 20
-139.23828125
 10
240.513671875
 20
-140.4619140625
 10
234.2734375
 20
-141.4296875
 10
228.091796875
 20
-142.68359375
 10
222.41796875
 20
-143.83203125
 10
216.810546875
 20
-145.291015625
 10
211.146484375
 20
-146.4765625
 10
205.5234375
 20
-147.654296875
 10
199.869140625
 20
-148.677734375
 10
194.22265625
 20
-149.73828125
 10
192.55078125
 20
-150.052734375
 10
191.86328125
 20
-151.5927734375
 10
191.982421875
 20
-153.814453125
 10
192.181640625
 20
-157.5478515625
 10
192.005859375
 20
-161.2900390625
 10
192.005859375
 20
-165.025390625
 10
192.00390625
 20
-187.91796875
 10
192.005859375
 20
-210.810546875
 10
192.00390625
 20
-233.7041015625
 10
192.00390625
 20
-236.87890625
 10
192.185546875
 20
-240.068359375
 10
191.927734375
 20
-243.2236328125
 10
191.75
 20
-245.3984375
 10
191.201171875
 20
-247.619140625
 10
190.3828125
 20
-249.6484375
 10
188.9462890625
 20
-253.212890625
 10
185.841796875
 20
-255.017578125
 10
182.197265625
 20
-255.615234375
 10
179.033203125
 20
-256.134765625
 10
175.78125
 20
-256.310546875
 10
172.56640625
 20
-256.3154296875
 10
169.4091796875
 20
-256.3203125
 10
166.2421875
 20
-255.98828125
 10
163.09814453125
 20
-255.6376953125
 10
162.58447265625
 20
-255.5810546875
 10
162.19287109375
 20
-255.025390625
 10
161.9111328125
 20
-254.6484375
 10
161.455078125
 20
-254.037109375
 10
161.54296875
 20
-253.7578125
 10
161.54296875
 20
-253.0322265625
 10
161.54443359375
 20
-226.4462890625
 10
161.53759765625
 20
-199.861328125
 10
161.556640625
 20
-173.275390625
 10
161.55810546875
 20
-170.6171875
 10
161.560546875
 20
-167.9580078125
 10
161.56298828125
 20
-165.2998046875
 10
161.56494140625
 20
-163.017578125
 10
161.845703125
 20
-160.548828125
 10
161.5
 20
-158.2880859375
 10
161.29052734375
 20
-156.9189453125
 10
160.01220703125
 20
-157.033203125
 10
158.90087890625
 20
-157.166015625
 10
156.302734375
 20
-157.4765625
 10
153.8154296875
 20
-158.31640625
 10
151.255859375
 20
-158.82421875
 10
147.0556640625
 20
-159.658203125
 10
142.826171875
 20
-160.34765625
 10
138.6328125
 20
-161.212890625
 10
134.9453125
 20
-161.97265625
 10
131.29931640625
 20
-162.921875
 10
127.62060546875
 20
-163.7265625
 10
125.52734375
 20
-164.18359375
 10
123.408203125
 20
-164.5107421875
 10
121.31591796875
 20
-164.9716796875
 10
120.3349609375
 20
-165.1884765625
 10
119.48779296875
 20
-165.2978515625
 10
118.8359375
 20
-166.1171875
 10
118.59716796875
 20
-166.4169921875
 10
118.39013671875
 20
-166.740234375
 10
118.177734375
 20
-167.05859375
 10
117.93359375
 20
-167.4248046875
 10
118.13525390625
 20
-167.982421875
 10
118.13525390625
 20
-168.384765625
 10
118.1357421875
 20
-196.62109375
 10
118.1357421875
 20
-224.8583984375
 10
118.13671875
 20
-253.09375
 10
118.13671875
 20
-253.7255859375
 10
118.2158203125
 20
-254.6962890625
 10
117.72314453125
 20
-255.1923828125
 10
117.19482421875
 20
-255.7255859375
 10
116.12841796875
 20
-255.4716796875
 10
115.4892578125
 20
-255.373046875
 10
112.21142578125
 20
-254.8671875
 10
108.91162109375
 20
-254.462890625
 10
105.6806640625
 20
-253.697265625
 10
101.80322265625
 20
-252.779296875
 10
97.94677734375
 20
-251.775390625
 10
94.11083984375
 20
-250.6982421875
 10
92.296875
 20
-250.189453125
 10
90.44970703125
 20
-249.724609375
 10
88.68017578125
 20
-249.0751953125
 10
86.87939453125
 20
-248.4140625
 10
85.16015625
 20
-247.55859375
 10
83.40576171875
 20
-246.7890625
 10
80.71728515625
 20
-245.611328125
 10
77.92626953125
 20
-244.587890625
 10
75.404296875
 20
-243.1220703125
 10
70.45849609375
 20
-240.2470703125
 10
65.65869140625
 20
-237.125
 10
60.81591796875
 20
-234.0791015625
 10
56.41259765625
 20
-231.310546875
 10
52.53271484375
 20
-227.892578125
 10
48.7216796875
 20
-224.4013671875
 10
39.341796875
 20
-215.8076171875
 10
31.6005859375
 20
-205.8701171875
 10
25.234375
 20
-194.990234375
 10
21.3935546875
 20
-188.42578125
 10
18.28271484375
 20
-181.4130859375
 10
15.26318359375
 20
-174.42578125
 10
13.12255859375
 20
-169.47265625
 10
11.37451171875
 20
-164.3017578125
 10
10.0087890625
 20
-159.0859375
 10
8.3759765625
 20
-152.849609375
 10
7.25390625
 20
-146.49609375
 10
6.0234375
 20
-140.171875
 10
4.783203125
 20
-133.7978515625
 10
4.08984375
 20
-127.341796875
 10
3.890625
 20
-120.8505859375
 10
3.4931640625
 20
-107.8671875
 10
4.9560546875
 20
-94.85546875
 10
7.90673828125
 20
-82.2119140625
 10
9.30224609375
 20
-76.2333984375
 10
11.09228515625
 20
-70.3349609375
 10
13.48779296875
 20
-64.6767578125
 10
15.82568359375
 20
-59.1533203125
 10
18.81884765625
 20
-54.0078125
 10
22.12353515625
 20
-49.0126953125
 10
28.75927734375
 20
-38.982421875
 10
37.658203125
 20
-30.32861328125
 10
48.3037109375
 20
-24.62451171875
 10
50.3623046875
 20
-23.521484375
 10
52.462890625
 20
-22.5
 10
54.56884765625
 20
-21.49169921875
 10
55.64599609375
 20
-20.97607421875
 10
56.716796875
 20
-20.38427734375
 10
57.84716796875
 20
-19.99267578125
 10
58.93798828125
 20
-19.61474609375
 10
60.07568359375
 20
-19.400390625
 10
61.18115234375
 20
-19.07275390625
 10
61.23974609375
 20
-19.1591796875
 10
61.29833984375
 20
-19.2451171875
 10
61.35693359375
 20
-19.33154296875
 10
58.30126953125
 20
-21.4248046875
 10
61.29833984375
 20
-19.2451171875
 10
61.35693359375
 20
-19.33154296875
 97
        0
 75
     0
 76
     1
 98
        0
  0
SPLINE
  5
42
330
3C
100
AcDbEntity
  8
Layer 1
370
     0
100
AcDbSpline
210
0.0
220
0.0
230
1.0
 70
    11
 71
     3
 72
   104
 73
   100
 74
     0
 42
0.0000000001
 43
0.0000000001
 40
0.0
 40
0.0
 40
0.0
 40
0.0
 40
1.0
 40
1.0
 40
1.0
 40
2.0
 40
2.0
 40
2.0
 40
3.0
 40
3.0
 40
3.0
 40
4.0
 40
4.0
 40
4.0
 40
5.0
 40
5.0
 40
5.0
 40
6.0
 40
6.0
 40
6.0
 40
7.0
 40
7.0
 40
7.0
 40
8.0
 40
8.0
 40
8.0
 40
9.0
 40
9.0
 40
9.0
 40
10.0
 40
10.0
 40
10.0
 40
11.0
 40
11.0
 40
11.0
 40
12.0
 40
12.0
 40
12.0
 40
13.0
 40
13.0
 40
13.0
 40
14.0
 40
14.0
 40
14.0
 40
15.0
 40
15.0
 40
15.0
 40
16.0
 40
16.0
 40
16.0
 40
17.0
 40
17.0
 40
17.0
 40
18.0
 40
18.0
 40
18.0
 40
19.0
 40
19.0
 40
19.0
 40
20.0
 40
20.0
 40
20.0
 40
21.0
 40
21.0
 40
21.0
 40
22.0
 40
22.0
 40
22.0
 40
23.0
 40
23.0
 40
23.0
 40
24.0
 40
24.0
 40
24.0
 40
25.0
 40
25.0
 40
25.0
 40
26.0
 40
26.0
 40
26.0
 40
27.0
 40
27.0
 40
27.0
 40
28.0
 40
28.0
 40
28.0
 40
29.0
 40
29.0
 40
29.0
 40
30.0
 40
30.0
 40
30.0
 40
31.0
 40
31.0
 40
31.0
 40
32.0
 40
32.0
 40
32.0
 40
33.0
 40
33.0
 40
33.0
 40
33.0
 10
285.51953125
 20
-122.0419921875
 30
0.0
 10
278.748046875
 20
-122.0419921875
 30
0.0
 10
271.9775390625
 20
-122.037109375
 30
0.0
 10
265.2060546875
 20
-122.0390625
 30
0.0
 10
261.75390625
 20
-122.041015625
 30
0.0
 10
258.3017578125
 20
-122.044921875
 30
0.0
 10
254.849609375
 20
-122.0517578125
 30
0.0
 10
253.1240234375
 20
-122.0556640625
 30
0.0
 10
251.3974609375
 20
-122.060546875
 30
0.0
 10
249.671875
 20
-122.06640625
 30
0.0
 10
248.453125
 20
-122.0703125
 30
0.0
 10
247.591796875
 20
-121.4736328125
 30
0.0
 10
246.96484375
 20
-120.458984375
 30
0.0
 10
242.783203125
 20
-113.7001953125
 30
0.0
 10
238.744140625
 20
-106.84375
 30
0.0
 10
234.26953125
 20
-100.27734375
 30
0.0
 10
231.47265625
 20
-96.171875
 30
0.0
 10
228.107421875
 20
-92.419921875
 30
0.0
 10
224.794921875
 20
-88.6865234375
 30
0.0
 10
221.333984375
 20
-84.7861328125
 30
0.0
 10
217.83984375
 20
-80.869140625
 30
0.0
 10
213.978515625
 20
-77.369140625
 30
0.0
 10
208.474609375
 20
-72.380859375
 30
0.0
 10
202.728515625
 20
-67.6357421875
 30
0.0
 10
196.8828125
 20
-63.037109375
 30
0.0
 10
193.19140625
 20
-60.1328125
 30
0.0
 10
189.216796875
 20
-57.552734375
 30
0.0
 10
185.2119140625
 20
-55.07421875
 30
0.0
 10
181.794921875
 20
-52.958984375
 30
0.0
 10
178.177734375
 20
-51.1533203125
 30
0.0
 10
174.609375
 20
-49.2861328125
 30
0.0
 10
166.869140625
 20
-45.2373046875
 30
0.0
 10
158.74951171875
 20
-42.0546875
 30
0.0
 10
150.4833984375
 20
-39.23828125
 30
0.0
 10
148.4599609375
 20
-38.548828125
 30
0.0
 10
146.365234375
 20
-38.09765625
 30
0.0
 10
144.26904296875
 20
-37.693359375
 30
0.0
 10
142.91015625
 20
-37.4306640625
 30
0.0
 10
142.06494140625
 20
-36.7158203125
 30
0.0
 10
142.0322265625
 20
-35.275390625
 30
0.0
 10
141.93310546875
 20
-30.87841796875
 30
0.0
 10
142.15478515625
 20
-26.47216796875
 30
0.0
 10
142.041015625
 20
-22.06982421875
 30
0.0
 10
141.9833984375
 20
-19.84130859375
 30
0.0
 10
141.70849609375
 20
-17.62646484375
 30
0.0
 10
141.5380859375
 20
-15.4052734375
 30
0.0
 10
141.3701171875
 20
-13.21484375
 30
0.0
 10
141.46875
 20
-11.0947265625
 30
0.0
 10
141.6748046875
 20
-8.91162109375
 30
0.0
 10
141.73876953125
 20
-8.23681640625
 30
0.0
 10
141.708984375
 20
-7.41259765625
 30
0.0
 10
142.3447265625
 20
-6.98779296875
 30
0.0
 10
143.05517578125
 20
-6.51318359375
 30
0.0
 10
144.0322265625
 20
-6.892578125
 30
0.0
 10
144.78076171875
 20
-7.04296875
 30
0.0
 10
146.9609375
 20
-7.48095703125
 30
0.0
 10
149.1435546875
 20
-7.904296875
 30
0.0
 10
151.32421875
 20
-8.34033203125
 30
0.0
 10
159.9892578125
 20
-10.0732421875
 30
0.0
 10
168.7548828125
 20
-12.033203125
 30
0.0
 10
176.896484375
 20
-15.552734375
 30
0.0
 10
181.4833984375
 20
-17.53466796875
 30
0.0
 10
186.3125
 20
-18.98388671875
 30
0.0
 10
190.84765625
 20
-21.0634765625
 30
0.0
 10
196.263671875
 20
-23.54638671875
 30
0.0
 10
201.60546875
 20
-26.23974609375
 30
0.0
 10
206.751953125
 20
-29.2236328125
 30
0.0
 10
213.3203125
 20
-33.03173828125
 30
0.0
 10
219.763671875
 20
-37.072265625
 30
0.0
 10
226.060546875
 20
-41.3046875
 30
0.0
 10
230.5341796875
 20
-44.3115234375
 30
0.0
 10
234.5244140625
 20
-47.9619140625
 30
0.0
 10
238.6630859375
 20
-51.3984375
 30
0.0
 10
242.8505859375
 20
-54.8759765625
 30
0.0
 10
247.125
 20
-58.287109375
 30
0.0
 10
250.865234375
 20
-62.2578125
 30
0.0
 10
257.212890625
 20
-68.998046875
 30
0.0
 10
263.720703125
 20
-75.62890625
 30
0.0
 10
269.10546875
 20
-83.2353515625
 30
0.0
 10
273.181640625
 20
-88.990234375
 30
0.0
 10
277.50390625
 20
-94.564453125
 30
0.0
 10
280.8359375
 20
-100.798828125
 30
0.0
 10
283.779296875
 20
-106.306640625
 30
0.0
 10
286.763671875
 20
-111.79296875
 30
0.0
 10
289.685546875
 20
-117.3125
 30
0.0
 10
290.23046875
 20
-118.34375
 30
0.0
 10
290.6953125
 20
-119.4609375
 30
0.0
 10
290.923828125
 20
-120.591796875
 30
0.0
 10
291.0712890625
 20
-121.3232421875
 30
0.0
 10
290.1123046875
 20
-121.939453125
 30
0.0
 10
289.5361328125
 20
-122.05078125
 30
0.0
 10
288.2158203125
 20
-122.3056640625
 30
0.0
 10
286.8681640625
 20
-122.3583984375
 30
0.0
 10
285.533203125
 20
-122.5
 30
0.0
 10
285.52734375
 20
-122.34765625
 30
0.0
 10
285.5234375
 20
-122.1953125
 30
0.0
 10
285.51953125
 20
-122.0419921875
 30
0.0
 10
273.5703125
 20
-122.0419921875
 30
0.0
 10
285.5234375
 20
-122.1953125
 30
0.0
 10
285.51953125
 20
-122.0419921875
 30
0.0
  0
HATCH
  5
43
330
3C
100
AcDbEntity
  8
Layer 1
 62
     7
420
 16777215
100
AcDbHatch
 10
0.0
 20
0.0
 30
0.0
210
0.0
220
0.0
230
1.0
  2
SOLID
 70
     1
 71
     0
 91
        1
 92
        1
 93
        1
 72
     4
 94
        3
 73
     0
 74
     1
 95
      104
 96
      100
 40
0.0
 40
0.0
 40
0.0
 40
0.0
 40
1.0
 40
1.0
 40
1.0
 40
2.0
 40
2.0
 40
2.0
 40
3.0
 40
3.0
 40
3.0
 40
4.0
 40
4.0
 40
4.0
 40
5.0
 40
5.0
 40
5.0
 40
6.0
 40
6.0
 40
6.0
 40
7.0
 40
7.0
 40
7.0
 40
8.0
 40
8.0
 40
8.0
 40
9.0
 40
9.0
 40
9.0
 40
10.0
 40
10.0
 40
10.0
 40
11.0
 40
11.0
 40
11.0
 40
12.0
 40
12.0
 40
12.0
 40
13.0
 40
13.0
 40
13.0
 40
14.0
 40
14.0
 40
14.0
 40
15.0
 40
15.0
 40
15.0
 40
16.0
 40
16.0
 40
16.0
 40
17.0
 40
17.0
 40
17.0
 40
18.0
 40
18.0
 40
18.0
 40
19.0
 40
19.0
 40
19.0
 40
20.0
 40
20.0
 40
20.0
 40
21.0
 40
21.0
 40
21.0
 40
22.0
 40
22.0
 40
22.0
 40
23.0
 40
23.0
 40
23.0
 40
24.0
 40
24.0
 40
24.0
 40
25.0
 40
25.0
 40
25.0
 40
26.0
 40
26.0
 40
26.0
 40
27.0
 40
27.0
 40
27.0
 40
28.0
 40
28.0
 40
28.0
 40
29.0
 40
29.0
 40
29.0
 40
30.0
 40
30.0
 40
30.0
 40
31.0
 40
31.0
 40
31.0
 40
32.0
 40
32.0
 40
32.0
 40
33.0
 40
33.0
 40
33.0
 40
33.0
 10
285.51953125
 20
-122.0419921875
 10
278.748046875
 20
-122.0419921875
 10
271.9775390625
 20
-122.037109375
 10
265.2060546875
 20
-122.0390625
 10
261.75390625
 20
-122.041015625
 10
258.3017578125
 20
-122.044921875
 10
254.849609375
 20
-122.0517578125
 10
253.1240234375
 20
-122.0556640625
 10
251.3974609375
 20
-122.060546875
 10
249.671875
 20
-122.06640625
 10
248.453125
 20
-122.0703125
 10
247.591796875
 20
-121.4736328125
 10
246.96484375
 20
-120.458984375
 10
242.783203125
 20
-113.7001953125
 10
238.744140625
 20
-106.84375
 10
234.26953125
 20
-100.27734375
 10
231.47265625
 20
-96.171875
 10
228.107421875
 20
-92.419921875
 10
224.794921875
 20
-88.6865234375
 10
221.333984375
 20
-84.7861328125
 10
217.83984375
 20
-80.869140625
 10
213.978515625
 20
-77.369140625
 10
208.474609375
 20
-72.380859375
 10
202.728515625
 20
-67.6357421875
 10
196.8828125
 20
-63.037109375
 10
193.19140625
 20
-60.1328125
 10
189.216796875
 20
-57.552734375
 10
185.2119140625
 20
-55.07421875
 10
181.794921875
 20
-52.958984375
 10
178.177734375
 20
-51.1533203125
 10
174.609375
 20
-49.2861328125
 10
166.869140625
 20
-45.2373046875
 10
158.74951171875
 20
-42.0546875
 10
150.4833984375
 20
-39.23828125
 10
148.4599609375
 20
-38.548828125
 10
146.365234375
 20
-38.09765625
 10
144.26904296875
 20
-37.693359375
 10
142.91015625
 20
-37.4306640625
 10
142.06494140625
 20
-36.7158203125
 10
142.0322265625
 20
-35.275390625
 10
141.93310546875
 20
-30.87841796875
 10
142.15478515625
 20
-26.47216796875
 10
142.041015625
 20
-22.06982421875
 10
141.9833984375
 20
-19.84130859375
 10
141.70849609375
 20
-17.62646484375
 10
141.5380859375
 20
-15.4052734375
 10
141.3701171875
 20
-13.21484375
 10
141.46875
 20
-11.0947265625
 10
141.6748046875
 20
-8.91162109375
 10
141.73876953125
 20
-8.23681640625
 10
141.708984375
 20
-7.41259765625
 10
142.3447265625
 20
-6.98779296875
 10
143.05517578125
 20
-6.51318359375
 10
144.0322265625
 20
-6.892578125
 10
144.78076171875
 20
-7.04296875
 10
146.9609375
 20
-7.48095703125
 10
149.1435546875
 20
-7.904296875
 10
151.32421875
 20
-8.34033203125
 10
159.9892578125
 20
-10.0732421875
 10
168.7548828125
 20
-12.033203125
 10
176.896484375
 20
-15.552734375
 10
181.4833984375
 20
-17.53466796875
 10
186.3125
 20
-18.98388671875
 10
190.84765625
 20
-21.0634765625
 10
196.263671875
 20
-23.54638671875
 10
201.60546875
 20
-26.23974609375
 10
206.751953125
 20
-29.2236328125
 10
213.3203125
 20
-33.03173828125
 10
219.763671875
 20
-37.072265625
 10
226.060546875
 20
-41.3046875
 10
230.5341796875
 20
-44.3115234375
 10
234.5244140625
 20
-47.9619140625
 10
238.6630859375
 20
-51.3984375
 10
242.8505859375
 20
-54.8759765625
 10
247.125
 20
-58.287109375
 10
250.865234375
 20
-62.2578125
 10
257.212890625
 20
-68.998046875
 10
263.720703125
 20
-75.62890625
 10
269.10546875
 20
-83.2353515625
 10
273.181640625
 20
-88.990234375
 10
277.50390625
 20
-94.564453125
 10
280.8359375
 20
-100.798828125
 10
283.779296875
 20
-106.306640625
 10
286.763671875
 20
-111.79296875
 10
289.685546875
 20
-117.3125
 10
290.23046875
 20
-118.34375
 10
290.6953125
 20
-119.4609375
 10
290.923828125
 20
-120.591796875
 10
291.0712890625
 20
-121.3232421875
 10
290.1123046875
 20
-121.939453125
 10
289.5361328125
 20
-122.05078125
 10
288.2158203125
 20
-122.3056640625
 10
286.8681640625
 20
-122.3583984375
 10
285.533203125
 20
-122.5
 10
285.52734375
 20
-122.34765625
 10
285.5234375
 20
-122.1953125
 10
285.51953125
 20
-122.0419921875
 10
273.5703125
 20
-122.0419921875
 10
285.5234375
 20
-122.1953125
 10
285.51953125
 20
-122.0419921875
 97
        0
 75
     0
 76
     1
 98
        0
  0
SPLINE
  5
44
330
3C
100
AcDbEntity
  8
Layer 1
370
     0
100
AcDbSpline
210
0.0
220
0.0
230
1.0
 70
    11
 71
     3
 72
    59
 73
    55
 74
     0
 42
0.0000000001
 43
0.0000000001
 40
0.0
 40
0.0
 40
0.0
 40
0.0
 40
1.0
 40
1.0
 40
1.0
 40
2.0
 40
2.0
 40
2.0
 40
3.0
 40
3.0
 40
3.0
 40
4.0
 40
4.0
 40
4.0
 40
5.0
 40
5.0
 40
5.0
 40
6.0
 40
6.0
 40
6.0
 40
7.0
 40
7.0
 40
7.0
 40
8.0
 40
8.0
 40
8.0
 40
9.0
 40
9.0
 40
9.0
 40
10.0
 40
10.0
 40
10.0
 40
11.0
 40
11.0
 40
11.0
 40
12.0
 40
12.0
 40
12.0
 40
13.0
 40
13.0
 40
13.0
 40
14.0
 40
14.0
 40
14.0
 40
15.0
 40
15.0
 40
15.0
 40
16.0
 40
16.0
 40
16.0
 40
17.0
 40
17.0
 40
17.0
 40
18.0
 40
18.0
 40
18.0
 40
18.0
 10
161.54541015625
 20
-87.783203125
 30
0.0
 10
161.54541015625
 20
-76.5966796875
 30
0.0
 10
161.5458984375
 20
-65.41015625
 30
0.0
 10
161.544921875
 20
-54.224609375
 30
0.0
 10
161.54443359375
 20
-51.6171875
 30
0.0
 10
161.5322265625
 20
-51.64453125
 30
0.0
 10
163.86767578125
 20
-52.787109375
 30
0.0
 10
166.861328125
 20
-54.251953125
 30
0.0
 10
169.9765625
 20
-55.4970703125
 30
0.0
 10
172.869140625
 20
-57.130859375
 30
0.0
 10
177.3232421875
 20
-59.6435546875
 30
0.0
 10
181.638671875
 20
-62.39453125
 30
0.0
 10
185.998046875
 20
-65.0703125
 30
0.0
 10
187.4873046875
 20
-65.984375
 30
0.0
 10
188.92578125
 20
-66.98046875
 30
0.0
 10
190.39453125
 20
-67.927734375
 30
0.0
 10
191.361328125
 20
-68.55078125
 30
0.0
 10
192.0322265625
 20
-69.462890625
 30
0.0
 10
192.1220703125
 20
-70.630859375
 30
0.0
 10
192.177734375
 20
-71.3544921875
 30
0.0
 10
191.9951171875
 20
-72.0625
 30
0.0
 10
192.0478515625
 20
-72.7880859375
 30
0.0
 10
192.107421875
 20
-73.609375
 30
0.0
 10
192.302734375
 20
-74.41796875
 30
0.0
 10
192.306640625
 20
-75.244140625
 30
0.0
 10
192.333984375
 20
-81.37109375
 30
0.0
 10
192.357421875
 20
-87.4990234375
 30
0.0
 10
192.30859375
 20
-93.6259765625
 30
0.0
 10
192.2626953125
 20
-99.4794921875
 30
0.0
 10
192.1787109375
 20
-105.3330078125
 30
0.0
 10
192.1015625
 20
-111.185546875
 30
0.0
 10
192.0634765625
 20
-114.0576171875
 30
0.0
 10
191.923828125
 20
-116.951171875
 30
0.0
 10
192.04296875
 20
-119.8212890625
 30
0.0
 10
192.0830078125
 20
-120.78125
 30
0.0
 10
192.404296875
 20
-122.1904296875
 30
0.0
 10
191.8828125
 20
-123.068359375
 30
0.0
 10
191.484375
 20
-123.740234375
 30
0.0
 10
190.5908203125
 20
-123.7919921875
 30
0.0
 10
189.89453125
 20
-123.7861328125
 30
0.0
 10
181.921875
 20
-123.728515625
 30
0.0
 10
173.9501953125
 20
-123.75390625
 30
0.0
 10
165.97802734375
 20
-123.7529296875
 30
0.0
 10
165.1806640625
 20
-123.7529296875
 30
0.0
 10
164.38134765625
 20
-123.7197265625
 30
0.0
 10
163.5869140625
 20
-123.763671875
 30
0.0
 10
162.06494140625
 20
-123.849609375
 30
0.0
 10
161.50927734375
 20
-123.232421875
 30
0.0
 10
161.5166015625
 20
-121.6787109375
 30
0.0
 10
161.57080078125
 20
-110.380859375
 30
0.0
 10
161.5458984375
 20
-99.0810546875
 30
0.0
 10
161.54541015625
 20
-87.783203125
 30
0.0
 10
161.54541015625
 20
-76.5966796875
 30
0.0
 10
161.5458984375
 20
-99.0810546875
 30
0.0
 10
161.54541015625
 20
-87.783203125
 30
0.0
  0
HATCH
  5
45
330
3C
100
AcDbEntity
  8
Layer 1
 62
     7
420
 16777215
100
AcDbHatch
 10
0.0
 20
0.0
 30
0.0
210
0.0
220
0.0
230
1.0
  2
SOLID
 70
     1
 71
     0
 91
        1
 92
        1
 93
        1
 72
     4
 94
        3
 73
     0
 74
     1
 95
       59
 96
       55
 40
0.0
 40
0.0
 40
0.0
 40
0.0
 40
1.0
 40
1.0
 40
1.0
 40
2.0
 40
2.0
 40
2.0
 40
3.0
 40
3.0
 40
3.0
 40
4.0
 40
4.0
 40
4.0
 40
5.0
 40
5.0
 40
5.0
 40
6.0
 40
6.0
 40
6.0
 40
7.0
 40
7.0
 40
7.0
 40
8.0
 40
8.0
 40
8.0
 40
9.0
 40
9.0
 40
9.0
 40
10.0
 40
10.0
 40
10.0
 40
11.0
 40
11.0
 40
11.0
 40
12.0
 40
12.0
 40
12.0
 40
13.0
 40
13.0
 40
13.0
 40
14.0
 40
14.0
 40
14.0
 40
15.0
 40
15.0
 40
15.0
 40
16.0
 40
16.0
 40
16.0
 40
17.0
 40
17.0
 40
17.0
 40
18.0
 40
18.0
 40
18.0
 40
18.0
 10
161.54541015625
 20
-87.783203125
 10
161.54541015625
 20
-76.5966796875
 10
161.5458984375
 20
-65.41015625
 10
161.544921875
 20
-54.224609375
 10
161.54443359375
 20
-51.6171875
 10
161.5322265625
 20
-51.64453125
 10
163.86767578125
 20
-52.787109375
 10
166.861328125
 20
-54.251953125
 10
169.9765625
 20
-55.4970703125
 10
172.869140625
 20
-57.130859375
 10
177.3232421875
 20
-59.6435546875
 10
181.638671875
 20
-62.39453125
 10
185.998046875
 20
-65.0703125
 10
187.4873046875
 20
-65.984375
 10
188.92578125
 20
-66.98046875
 10
190.39453125
 20
-67.927734375
 10
191.361328125
 20
-68.55078125
 10
192.0322265625
 20
-69.462890625
 10
192.1220703125
 20
-70.630859375
 10
192.177734375
 20
-71.3544921875
 10
191.9951171875
 20
-72.0625
 10
192.0478515625
 20
-72.7880859375
 10
192.107421875
 20
-73.609375
 10
192.302734375
 20
-74.41796875
 10
192.306640625
 20
-75.244140625
 10
192.333984375
 20
-81.37109375
 10
192.357421875
 20
-87.4990234375
 10
192.30859375
 20
-93.6259765625
 10
192.2626953125
 20
-99.4794921875
 10
192.1787109375
 20
-105.3330078125
 10
192.1015625
 20
-111.185546875
 10
192.0634765625
 20
-114.0576171875
 10
191.923828125
 20
-116.951171875
 10
192.04296875
 20
-119.8212890625
 10
192.0830078125
 20
-120.78125
 10
192.404296875
 20
-122.1904296875
 10
191.8828125
 20
-123.068359375
 10
191.484375
 20
-123.740234375
 10
190.5908203125
 20
-123.7919921875
 10
189.89453125
 20
-123.7861328125
 10
181.921875
 20
-123.728515625
 10
173.9501953125
 20
-123.75390625
 10
165.97802734375
 20
-123.7529296875
 10
165.1806640625
 20
-123.7529296875
 10
164.38134765625
 20
-123.7197265625
 10
163.5869140625
 20
-123.763671875
 10
162.06494140625
 20
-123.849609375
 10
161.50927734375
 20
-123.232421875
 10
161.5166015625
 20
-121.6787109375
 10
161.57080078125
 20
-110.380859375
 10
161.5458984375
 20
-99.0810546875
 10
161.54541015625
 20
-87.783203125
 10
161.54541015625
 20
-76.5966796875
 10
161.5458984375
 20
-99.0810546875
 10
161.54541015625
 20
-87.783203125
 97
        0
 75
     0
 76
     1
 98
        0
  0
SPLINE
  5
46
330
3C
100
AcDbEntity
  8
Layer 1
370
     0
100
AcDbSpline
210
0.0
220
0.0
230
1.0
 70
    11
 71
     3
 72
    62
 73
    58
 74
     0
 42
0.0000000001
 43
0.0000000001
 40
0.0
 40
0.0
 40
0.0
 40
0.0
 40
1.0
 40
1.0
 40
1.0
 40
2.0
 40
2.0
 40
2.0
 40
3.0
 40
3.0
 40
3.0
 40
4.0
 40
4.0
 40
4.0
 40
5.0
 40
5.0
 40
5.0
 40
6.0
 40
6.0
 40
6.0
 40
7.0
 40
7.0
 40
7.0
 40
8.0
 40
8.0
 40
8.0
 40
9.0
 40
9.0
 40
9.0
 40
10.0
 40
10.0
 40
10.0
 40
11.0
 40
11.0
 40
11.0
 40
12.0
 40
12.0
 40
12.0
 40
13.0
 40
13.0
 40
13.0
 40
14.0
 40
14.0
 40
14.0
 40
15.0
 40
15.0
 40
15.0
 40
16.0
 40
16.0
 40
16.0
 40
17.0
 40
17.0
 40
17.0
 40
18.0
 40
18.0
 40
18.0
 40
19.0
 40
19.0
 40
19.0
 40
19.0
 10
123.60595703125
 20
-5.59326171875
 30
0.0
 10
127.27490234375
 20
-5.59326171875
 30
0.0
 10
130.9443359375
 20
-5.55810546875
 30
0.0
 10
134.61328125
 20
-5.60205078125
 30
0.0
 10
137.44091796875
 20
-5.6357421875
 30
0.0
 10
138.517578125
 20
-7.78173828125
 30
0.0
 10
138.3046875
 20
-10.40869140625
 30
0.0
 10
138.01806640625
 20
-13.9453125
 30
0.0
 10
138.2373046875
 20
-17.52294921875
 30
0.0
 10
138.24951171875
 20
-21.0830078125
 30
0.0
 10
138.2587890625
 20
-23.52587890625
 30
0.0
 10
138.33154296875
 20
-25.96875
 30
0.0
 10
138.29248046875
 20
-28.41064453125
 30
0.0
 10
138.26025390625
 20
-30.416015625
 30
0.0
 10
138.115234375
 20
-32.419921875
 30
0.0
 10
138.00390625
 20
-34.423828125
 30
0.0
 10
137.9453125
 20
-35.49560546875
 30
0.0
 10
137.55078125
 20
-36.24365234375
 30
0.0
 10
136.37890625
 20
-36.17822265625
 30
0.0
 10
134.482421875
 20
-36.072265625
 30
0.0
 10
132.55517578125
 20
-35.51904296875
 30
0.0
 10
130.66650390625
 20
-35.26904296875
 30
0.0
 10
126.53564453125
 20
-34.72216796875
 30
0.0
 10
122.37060546875
 20
-34.498046875
 30
0.0
 10
118.21044921875
 20
-34.318359375
 30
0.0
 10
116.0966796875
 20
-34.22705078125
 30
0.0
 10
113.98193359375
 20
-34.15673828125
 30
0.0
 10
111.86669921875
 20
-34.09765625
 30
0.0
 10
110.8095703125
 20
-34.068359375
 30
0.0
 10
109.751953125
 20
-34.04150390625
 30
0.0
 10
108.6943359375
 20
-34.01611328125
 30
0.0
 10
107.89892578125
 20
-33.9970703125
 30
0.0
 10
107.0849609375
 20
-34.02099609375
 30
0.0
 10
106.3447265625
 20
-33.6806640625
 30
0.0
 10
104.8681640625
 20
-33.001953125
 30
0.0
 10
104.033203125
 20
-30.93994140625
 30
0.0
 10
103.19677734375
 20
-29.6455078125
 30
0.0
 10
102.09130859375
 20
-27.93505859375
 30
0.0
 10
100.99658203125
 20
-26.2177734375
 30
0.0
 10
99.9482421875
 20
-24.47216796875
 30
0.0
 10
97.78125
 20
-20.86279296875
 30
0.0
 10
95.69482421875
 20
-17.205078125
 30
0.0
 10
93.6123046875
 20
-13.546875
 30
0.0
 10
92.1357421875
 20
-10.953125
 30
0.0
 10
92.58740234375
 20
-9.869140625
 30
0.0
 10
95.35791015625
 20
-8.6474609375
 30
0.0
 10
99.47412109375
 20
-6.83154296875
 30
0.0
 10
104.25537109375
 20
-6.55029296875
 30
0.0
 10
108.68017578125
 20
-6.10107421875
 30
0.0
 10
113.63916015625
 20
-5.59716796875
 30
0.0
 10
118.62353515625
 20
-5.4423828125
 30
0.0
 10
123.5947265625
 20
-5.10400390625
 30
0.0
 10
123.59814453125
 20
-5.26708984375
 30
0.0
 10
123.6025390625
 20
-5.43017578125
 30
0.0
 10
123.60595703125
 20
-5.59326171875
 30
0.0
 10
127.40625
 20
-5.59326171875
 30
0.0
 10
123.6025390625
 20
-5.43017578125
 30
0.0
 10
123.60595703125
 20
-5.59326171875
 30
0.0
  0
HATCH
  5
47
330
3C
100
AcDbEntity
  8
Layer 1
 62
     7
420
 16777215
100
AcDbHatch
 10
0.0
 20
0.0
 30
0.0
210
0.0
220
0.0
230
1.0
  2
SOLID
 70
     1
 71
     0
 91
        1
 92
        1
 93
        1
 72
     4
 94
        3
 73
     0
 74
     1
 95
       62
 96
       58
 40
0.0
 40
0.0
 40
0.0
 40
0.0
 40
1.0
 40
1.0
 40
1.0
 40
2.0
 40
2.0
 40
2.0
 40
3.0
 40
3.0
 40
3.0
 40
4.0
 40
4.0
 40
4.0
 40
5.0
 40
5.0
 40
5.0
 40
6.0
 40
6.0
 40
6.0
 40
7.0
 40
7.0
 40
7.0
 40
8.0
 40
8.0
 40
8.0
 40
9.0
 40
9.0
 40
9.0
 40
10.0
 40
10.0
 40
10.0
 40
11.0
 40
11.0
 40
11.0
 40
12.0
 40
12.0
 40
12.0
 40
13.0
 40
13.0
 40
13.0
 40
14.0
 40
14.0
 40
14.0
 40
15.0
 40
15.0
 40
15.0
 40
16.0
 40
16.0
 40
16.0
 40
17.0
 40
17.0
 40
17.0
 40
18.0
 40
18.0
 40
18.0
 40
19.0
 40
19.0
 40
19.0
 40
19.0
 10
123.60595703125
 20
-5.59326171875
 10
127.27490234375
 20
-5.59326171875
 10
130.9443359375
 20
-5.55810546875
 10
134.61328125
 20
-5.60205078125
 10
137.44091796875
 20
-5.6357421875
 10
138.517578125
 20
-7.78173828125
 10
138.3046875
 20
-10.40869140625
 10
138.01806640625
 20
-13.9453125
 10
138.2373046875
 20
-17.52294921875
 10
138.24951171875
 20
-21.0830078125
 10
138.2587890625
 20
-23.52587890625
 10
138.33154296875
 20
-25.96875
 10
138.29248046875
 20
-28.41064453125
 10
138.26025390625
 20
-30.416015625
 10
138.115234375
 20
-32.419921875
 10
138.00390625
 20
-34.423828125
 10
137.9453125
 20
-35.49560546875
 10
137.55078125
 20
-36.24365234375
 10
136.37890625
 20
-36.17822265625
 10
134.482421875
 20
-36.072265625
 10
132.55517578125
 20
-35.51904296875
 10
130.66650390625
 20
-35.26904296875
 10
126.53564453125
 20
-34.72216796875
 10
122.37060546875
 20
-34.498046875
 10
118.21044921875
 20
-34.318359375
 10
116.0966796875
 20
-34.22705078125
 10
113.98193359375
 20
-34.15673828125
 10
111.86669921875
 20
-34.09765625
 10
110.8095703125
 20
-34.068359375
 10
109.751953125
 20
-34.04150390625
 10
108.6943359375
 20
-34.01611328125
 10
107.89892578125
 20
-33.9970703125
 10
107.0849609375
 20
-34.02099609375
 10
106.3447265625
 20
-33.6806640625
 10
104.8681640625
 20
-33.001953125
 10
104.033203125
 20
-30.93994140625
 10
103.19677734375
 20
-29.6455078125
 10
102.09130859375
 20
-27.93505859375
 10
100.99658203125
 20
-26.2177734375
 10
99.9482421875
 20
-24.47216796875
 10
97.78125
 20
-20.86279296875
 10
95.69482421875
 20
-17.205078125
 10
93.6123046875
 20
-13.546875
 10
92.1357421875
 20
-10.953125
 10
92.58740234375
 20
-9.869140625
 10
95.35791015625
 20
-8.6474609375
 10
99.47412109375
 20
-6.83154296875
 10
104.25537109375
 20
-6.55029296875
 10
108.68017578125
 20
-6.10107421875
 10
113.63916015625
 20
-5.59716796875
 10
118.62353515625
 20
-5.4423828125
 10
123.5947265625
 20
-5.10400390625
 10
123.59814453125
 20
-5.26708984375
 10
123.6025390625
 20
-5.43017578125
 10
123.60595703125
 20
-5.59326171875
 10
127.40625
 20
-5.59326171875
 10
123.6025390625
 20
-5.43017578125
 10
123.60595703125
 20
-5.59326171875
 97
        0
 75
     0
 76
     1
 98
        0
  0
SPLINE
  5
48
330
3C
100
AcDbEntity
  8
Layer 1
370
     0
100
AcDbSpline
210
0.0
220
0.0
230
1.0
 70
    11
 71
     3
 72
    71
 73
    67
 74
     0
 42
0.0000000001
 43
0.0000000001
 40
0.0
 40
0.0
 40
0.0
 40
0.0
 40
1.0
 40
1.0
 40
1.0
 40
2.0
 40
2.0
 40
2.0
 40
3.0
 40
3.0
 40
3.0
 40
4.0
 40
4.0
 40
4.0
 40
5.0
 40
5.0
 40
5.0
 40
6.0
 40
6.0
 40
6.0
 40
7.0
 40
7.0
 40
7.0
 40
8.0
 40
8.0
 40
8.0
 40
9.0
 40
9.0
 40
9.0
 40
10.0
 40
10.0
 40
10.0
 40
11.0
 40
11.0
 40
11.0
 40
12.0
 40
12.0
 40
12.0
 40
13.0
 40
13.0
 40
13.0
 40
14.0
 40
14.0
 40
14.0
 40
15.0
 40
15.0
 40
15.0
 40
16.0
 40
16.0
 40
16.0
 40
17.0
 40
17.0
 40
17.0
 40
18.0
 40
18.0
 40
18.0
 40
19.0
 40
19.0
 40
19.0
 40
20.0
 40
20.0
 40
20.0
 40
21.0
 40
21.0
 40
21.0
 40
22.0
 40
22.0
 40
22.0
 40
22.0
 10
51.44580078125
 20
-33.697265625
 30
0.0
 10
53.97705078125
 20
-30.37841796875
 30
0.0
 10
57.14404296875
 20
-27.63818359375
 30
0.0
 10
60.56005859375
 20
-25.26416015625
 30
0.0
 10
62.47509765625
 20
-23.93310546875
 30
0.0
 10
64.4423828125
 20
-22.681640625
 30
0.0
 10
66.35107421875
 20
-21.33984375
 30
0.0
 10
68.21484375
 20
-20.029296875
 30
0.0
 10
70.0751953125
 20
-18.35400390625
 30
0.0
 10
72.15478515625
 20
-17.40869140625
 30
0.0
 10
76.39111328125
 20
-15.4833984375
 30
0.0
 10
80.5888671875
 20
-13.4560546875
 30
0.0
 10
84.91162109375
 20
-11.7275390625
 30
0.0
 10
85.70654296875
 20
-11.41015625
 30
0.0
 10
86.96875
 20
-10.75390625
 30
0.0
 10
87.80712890625
 20
-11.2919921875
 30
0.0
 10
88.74462890625
 20
-11.89306640625
 30
0.0
 10
89.17333984375
 20
-13.42626953125
 30
0.0
 10
89.60888671875
 20
-14.3740234375
 30
0.0
 10
90.69482421875
 20
-16.73388671875
 30
0.0
 10
92.1806640625
 20
-18.9228515625
 30
0.0
 10
93.58056640625
 20
-21.13037109375
 30
0.0
 10
95.76513671875
 20
-24.5771484375
 30
0.0
 10
98.029296875
 20
-27.97412109375
 30
0.0
 10
100.25830078125
 20
-31.392578125
 30
0.0
 10
100.4091796875
 20
-31.62353515625
 30
0.0
 10
100.51708984375
 20
-31.8876953125
 30
0.0
 10
100.6962890625
 20
-32.09326171875
 30
0.0
 10
101.07861328125
 20
-32.5322265625
 30
0.0
 10
101.73779296875
 20
-33.166015625
 30
0.0
 10
101.7412109375
 20
-33.80224609375
 30
0.0
 10
101.74462890625
 20
-34.4423828125
 30
0.0
 10
100.8173828125
 20
-34.68701171875
 30
0.0
 10
100.3466796875
 20
-34.83203125
 30
0.0
 10
97.7841796875
 20
-35.623046875
 30
0.0
 10
95.12939453125
 20
-36.1826171875
 30
0.0
 10
92.5244140625
 20
-36.81640625
 30
0.0
 10
89.8671875
 20
-37.4638671875
 30
0.0
 10
87.14990234375
 20
-37.99609375
 30
0.0
 10
84.5283203125
 20
-38.775390625
 30
0.0
 10
83.197265625
 20
-39.169921875
 30
0.0
 10
81.962890625
 20
-39.9208984375
 30
0.0
 10
80.72802734375
 20
-40.5419921875
 30
0.0
 10
79.44677734375
 20
-41.1865234375
 30
0.0
 10
78.16552734375
 20
-41.8310546875
 30
0.0
 10
76.88525390625
 20
-42.4775390625
 30
0.0
 10
74.44140625
 20
-43.7109375
 30
0.0
 10
72.00048828125
 20
-44.951171875
 30
0.0
 10
69.5673828125
 20
-46.20703125
 30
0.0
 10
68.7060546875
 20
-46.6513671875
 30
0.0
 10
67.80712890625
 20
-47.193359375
 30
0.0
 10
66.8115234375
 20
-46.84765625
 30
0.0
 10
65.6708984375
 20
-46.4521484375
 30
0.0
 10
64.7275390625
 20
-45.326171875
 30
0.0
 10
63.82861328125
 20
-44.5615234375
 30
0.0
 10
61.7607421875
 20
-42.802734375
 30
0.0
 10
59.66357421875
 20
-41.0791015625
 30
0.0
 10
57.5703125
 20
-39.3515625
 30
0.0
 10
56.4736328125
 20
-38.4462890625
 30
0.0
 10
55.37841796875
 20
-37.5390625
 30
0.0
 10
54.2890625
 20
-36.625
 30
0.0
 10
53.22705078125
 20
-35.734375
 30
0.0
 10
52.3779296875
 20
-34.7158203125
 30
0.0
 10
51.44580078125
 20
-33.697265625
 30
0.0
 10
54.58740234375
 20
-29.578125
 30
0.0
 10
52.2490234375
 20
-34.57470703125
 30
0.0
 10
51.44580078125
 20
-33.697265625
 30
0.0
  0
HATCH
  5
49
330
3C
100
AcDbEntity
  8
Layer 1
 62
     7
420
 16777215
100
AcDbHatch
 10
0.0
 20
0.0
 30
0.0
210
0.0
220
0.0
230
1.0
  2
SOLID
 70
     1
 71
     0
 91
        1
 92
        1
 93
        1
 72
     4
 94
        3
 73
     0
 74
     1
 95
       71
 96
       67
 40
0.0
 40
0.0
 40
0.0
 40
0.0
 40
1.0
 40
1.0
 40
1.0
 40
2.0
 40
2.0
 40
2.0
 40
3.0
 40
3.0
 40
3.0
 40
4.0
 40
4.0
 40
4.0
 40
5.0
 40
5.0
 40
5.0
 40
6.0
 40
6.0
 40
6.0
 40
7.0
 40
7.0
 40
7.0
 40
8.0
 40
8.0
 40
8.0
 40
9.0
 40
9.0
 40
9.0
 40
10.0
 40
10.0
 40
10.0
 40
11.0
 40
11.0
 40
11.0
 40
12.0
 40
12.0
 40
12.0
 40
13.0
 40
13.0
 40
13.0
 40
14.0
 40
14.0
 40
14.0
 40
15.0
 40
15.0
 40
15.0
 40
16.0
 40
16.0
 40
16.0
 40
17.0
 40
17.0
 40
17.0
 40
18.0
 40
18.0
 40
18.0
 40
19.0
 40
19.0
 40
19.0
 40
20.0
 40
20.0
 40
20.0
 40
21.0
 40
21.0
 40
21.0
 40
22.0
 40
22.0
 40
22.0
 40
22.0
 10
51.44580078125
 20
-33.697265625
 10
53.97705078125
 20
-30.37841796875
 10
57.14404296875
 20
-27.63818359375
 10
60.56005859375
 20
-25.26416015625
 10
62.47509765625
 20
-23.93310546875
 10
64.4423828125
 20
-22.681640625
 10
66.35107421875
 20
-21.33984375
 10
68.21484375
 20
-20.029296875
 10
70.0751953125
 20
-18.35400390625
 10
72.15478515625
 20
-17.40869140625
 10
76.39111328125
 20
-15.4833984375
 10
80.5888671875
 20
-13.4560546875
 10
84.91162109375
 20
-11.7275390625
 10
85.70654296875
 20
-11.41015625
 10
86.96875
 20
-10.75390625
 10
87.80712890625
 20
-11.2919921875
 10
88.74462890625
 20
-11.89306640625
 10
89.17333984375
 20
-13.42626953125
 10
89.60888671875
 20
-14.3740234375
 10
90.69482421875
 20
-16.73388671875
 10
92.1806640625
 20
-18.9228515625
 10
93.58056640625
 20
-21.13037109375
 10
95.76513671875
 20
-24.5771484375
 10
98.029296875
 20
-27.97412109375
 10
100.25830078125
 20
-31.392578125
 10
100.4091796875
 20
-31.62353515625
 10
100.51708984375
 20
-31.8876953125
 10
100.6962890625
 20
-32.09326171875
 10
101.07861328125
 20
-32.5322265625
 10
101.73779296875
 20
-33.166015625
 10
101.7412109375
 20
-33.80224609375
 10
101.74462890625
 20
-34.4423828125
 10
100.8173828125
 20
-34.68701171875
 10
100.3466796875
 20
-34.83203125
 10
97.7841796875
 20
-35.623046875
 10
95.12939453125
 20
-36.1826171875
 10
92.5244140625
 20
-36.81640625
 10
89.8671875
 20
-37.4638671875
 10
87.14990234375
 20
-37.99609375
 10
84.5283203125
 20
-38.775390625
 10
83.197265625
 20
-39.169921875
 10
81.962890625
 20
-39.9208984375
 10
80.72802734375
 20
-40.5419921875
 10
79.44677734375
 20
-41.1865234375
 10
78.16552734375
 20
-41.8310546875
 10
76.88525390625
 20
-42.4775390625
 10
74.44140625
 20
-43.7109375
 10
72.00048828125
 20
-44.951171875
 10
69.5673828125
 20
-46.20703125
 10
68.7060546875
 20
-46.6513671875
 10
67.80712890625
 20
-47.193359375
 10
66.8115234375
 20
-46.84765625
 10
65.6708984375
 20
-46.4521484375
 10
64.7275390625
 20
-45.326171875
 10
63.82861328125
 20
-44.5615234375
 10
61.7607421875
 20
-42.802734375
 10
59.66357421875
 20
-41.0791015625
 10
57.5703125
 20
-39.3515625
 10
56.4736328125
 20
-38.4462890625
 10
55.37841796875
 20
-37.5390625
 10
54.2890625
 20
-36.625
 10
53.22705078125
 20
-35.734375
 10
52.3779296875
 20
-34.7158203125
 10
51.44580078125
 20
-33.697265625
 10
54.58740234375
 20
-29.578125
 10
52.2490234375
 20
-34.57470703125
 10
51.44580078125
 20
-33.697265625
 97
        0
 75
     0
 76
     1
 98
        0
  0
SPLINE
  5
4A
330
3C
100
AcDbEntity
  8
Layer 1
370
     0
100
AcDbSpline
210
0.0
220
0.0
230
1.0
 70
    11
 71
     3
 72
    41
 73
    37
 74
     0
 42
0.0000000001
 43
0.0000000001
 40
0.0
 40
0.0
 40
0.0
 40
0.0
 40
1.0
 40
1.0
 40
1.0
 40
2.0
 40
2.0
 40
2.0
 40
3.0
 40
3.0
 40
3.0
 40
4.0
 40
4.0
 40
4.0
 40
5.0
 40
5.0
 40
5.0
 40
6.0
 40
6.0
 40
6.0
 40
7.0
 40
7.0
 40
7.0
 40
8.0
 40
8.0
 40
8.0
 40
9.0
 40
9.0
 40
9.0
 40
10.0
 40
10.0
 40
10.0
 40
11.0
 40
11.0
 40
11.0
 40
12.0
 40
12.0
 40
12.0
 40
12.0
 10
28.68798828125
 20
-73.513671875
 30
0.0
 10
33.25048828125
 20
-59.9931640625
 30
0.0
 10
39.25439453125
 20
-47.66015625
 30
0.0
 10
48.6025390625
 20
-37.0859375
 30
0.0
 10
52.7451171875
 20
-40.5146484375
 30
0.0
 10
56.75439453125
 20
-43.841796875
 30
0.0
 10
60.77783203125
 20
-47.15234375
 30
0.0
 10
61.423828125
 20
-47.6845703125
 30
0.0
 10
62.095703125
 20
-48.185546875
 30
0.0
 10
62.787109375
 20
-48.6572265625
 30
0.0
 10
63.3388671875
 20
-49.033203125
 30
0.0
 10
64.08544921875
 20
-49.5810546875
 30
0.0
 10
63.4609375
 20
-50.2705078125
 30
0.0
 10
62.2802734375
 20
-51.57421875
 30
0.0
 10
60.64599609375
 20
-52.6044921875
 30
0.0
 10
59.34619140625
 20
-53.8056640625
 30
0.0
 10
56.69775390625
 20
-56.25390625
 30
0.0
 10
54.2509765625
 20
-58.919921875
 30
0.0
 10
52.03662109375
 20
-61.767578125
 30
0.0
 10
49.72900390625
 20
-64.734375
 30
0.0
 10
47.6962890625
 20
-67.892578125
 30
0.0
 10
45.88232421875
 20
-71.1826171875
 30
0.0
 10
44.91552734375
 20
-72.9365234375
 30
0.0
 10
44.03173828125
 20
-74.73828125
 30
0.0
 10
43.0458984375
 20
-76.48046875
 30
0.0
 10
42.359375
 20
-77.6943359375
 30
0.0
 10
41.4736328125
 20
-77.900390625
 30
0.0
 10
40.19970703125
 20
-77.35546875
 30
0.0
 10
38.37548828125
 20
-76.5751953125
 30
0.0
 10
36.45361328125
 20
-76.060546875
 30
0.0
 10
34.54248046875
 20
-75.54296875
 30
0.0
 10
32.51318359375
 20
-74.994140625
 30
0.0
 10
30.62841796875
 20
-74.3125
 30
0.0
 10
28.68798828125
 20
-73.513671875
 30
0.0
 10
33.25048828125
 20
-59.9931640625
 30
0.0
 10
29.73681640625
 20
-73.9453125
 30
0.0
 10
28.68798828125
 20
-73.513671875
 30
0.0
  0
HATCH
  5
4B
330
3C
100
AcDbEntity
  8
Layer 1
 62
     7
420
 16777215
100
AcDbHatch
 10
0.0
 20
0.0
 30
0.0
210
0.0
220
0.0
230
1.0
  2
SOLID
 70
     1
 71
     0
 91
        1
 92
        1
 93
        1
 72
     4
 94
        3
 73
     0
 74
     1
 95
       41
 96
       37
 40
0.0
 40
0.0
 40
0.0
 40
0.0
 40
1.0
 40
1.0
 40
1.0
 40
2.0
 40
2.0
 40
2.0
 40
3.0
 40
3.0
 40
3.0
 40
4.0
 40
4.0
 40
4.0
 40
5.0
 40
5.0
 40
5.0
 40
6.0
 40
6.0
 40
6.0
 40
7.0
 40
7.0
 40
7.0
 40
8.0
 40
8.0
 40
8.0
 40
9.0
 40
9.0
 40
9.0
 40
10.0
 40
10.0
 40
10.0
 40
11.0
 40
11.0
 40
11.0
 40
12.0
 40
12.0
 40
12.0
 40
12.0
 10
28.68798828125
 20
-73.513671875
 10
33.25048828125
 20
-59.9931640625
 10
39.25439453125
 20
-47.66015625
 10
48.6025390625
 20
-37.0859375
 10
52.7451171875
 20
-40.5146484375
 10
56.75439453125
 20
-43.841796875
 10
60.77783203125
 20
-47.15234375
 10
61.423828125
 20
-47.6845703125
 10
62.095703125
 20
-48.185546875
 10
62.787109375
 20
-48.6572265625
 10
63.3388671875
 20
-49.033203125
 10
64.08544921875
 20
-49.5810546875
 10
63.4609375
 20
-50.2705078125
 10
62.2802734375
 20
-51.57421875
 10
60.64599609375
 20
-52.6044921875
 10
59.34619140625
 20
-53.8056640625
 10
56.69775390625
 20
-56.25390625
 10
54.2509765625
 20
-58.919921875
 10
52.03662109375
 20
-61.767578125
 10
49.72900390625
 20
-64.734375
 10
47.6962890625
 20
-67.892578125
 10
45.88232421875
 20
-71.1826171875
 10
44.91552734375
 20
-72.9365234375
 10
44.03173828125
 20
-74.73828125
 10
43.0458984375
 20
-76.48046875
 10
42.359375
 20
-77.6943359375
 10
41.4736328125
 20
-77.900390625
 10
40.19970703125
 20
-77.35546875
 10
38.37548828125
 20
-76.5751953125
 10
36.45361328125
 20
-76.060546875
 10
34.54248046875
 20
-75.54296875
 10
32.51318359375
 20
-74.994140625
 10
30.62841796875
 20
-74.3125
 10
28.68798828125
 20
-73.513671875
 10
33.25048828125
 20
-59.9931640625
 10
29.73681640625
 20
-73.9453125
 10
28.68798828125
 20
-73.513671875
 97
        0
 75
     0
 76
     1
 98
        0
  0
SPLINE
  5
4C
330
3C
100
AcDbEntity
  8
Layer 1
370
     0
100
AcDbSpline
210
0.0
220
0.0
230
1.0
 70
    11
 71
     3
 72
    47
 73
    43
 74
     0
 42
0.0000000001
 43
0.0000000001
 40
0.0
 40
0.0
 40
0.0
 40
0.0
 40
1.0
 40
1.0
 40
1.0
 40
2.0
 40
2.0
 40
2.0
 40
3.0
 40
3.0
 40
3.0
 40
4.0
 40
4.0
 40
4.0
 40
5.0
 40
5.0
 40
5.0
 40
6.0
 40
6.0
 40
6.0
 40
7.0
 40
7.0
 40
7.0
 40
8.0
 40
8.0
 40
8.0
 40
9.0
 40
9.0
 40
9.0
 40
10.0
 40
10.0
 40
10.0
 40
11.0
 40
11.0
 40
11.0
 40
12.0
 40
12.0
 40
12.0
 40
13.0
 40
13.0
 40
13.0
 40
14.0
 40
14.0
 40
14.0
 40
14.0
 10
57.322265625
 20
-183.728515625
 30
0.0
 10
50.58154296875
 20
-177.1298828125
 30
0.0
 10
45.90380859375
 20
-169.67578125
 30
0.0
 10
41.66845703125
 20
-161.9697265625
 30
0.0
 10
39.61572265625
 20
-158.234375
 30
0.0
 10
37.68603515625
 20
-154.421875
 30
0.0
 10
36.07666015625
 20
-150.47265625
 30
0.0
 10
34.42724609375
 20
-146.423828125
 30
0.0
 10
33.0224609375
 20
-142.25
 30
0.0
 10
31.646484375
 20
-138.1015625
 30
0.0
 10
30.267578125
 20
-133.9443359375
 30
0.0
 10
29.025390625
 20
-129.7353515625
 30
0.0
 10
28.11279296875
 20
-125.44921875
 30
0.0
 10
27.6650390625
 20
-123.3466796875
 30
0.0
 10
27.38525390625
 20
-121.2265625
 30
0.0
 10
27.01171875
 20
-119.1123046875
 30
0.0
 10
26.78857421875
 20
-117.849609375
 30
0.0
 10
25.560546875
 20
-114.8037109375
 30
0.0
 10
27.74267578125
 20
-114.63671875
 30
0.0
 10
29.7744140625
 20
-114.482421875
 30
0.0
 10
31.81103515625
 20
-114.390625
 30
0.0
 10
33.84521484375
 20
-114.263671875
 30
0.0
 10
34.85009765625
 20
-114.2001953125
 30
0.0
 10
35.39599609375
 20
-114.71484375
 30
0.0
 10
35.42236328125
 20
-115.71875
 30
0.0
 10
35.46337890625
 20
-117.251953125
 30
0.0
 10
35.54052734375
 20
-118.78515625
 30
0.0
 10
35.6513671875
 20
-120.314453125
 30
0.0
 10
35.88134765625
 20
-123.4853515625
 30
0.0
 10
36.25732421875
 20
-126.6455078125
 30
0.0
 10
36.75390625
 20
-129.78515625
 30
0.0
 10
37.75
 20
-136.076171875
 30
0.0
 10
39.2314453125
 20
-142.283203125
 30
0.0
 10
40.982421875
 20
-148.404296875
 30
0.0
 10
43.53662109375
 20
-157.330078125
 30
0.0
 10
47.22021484375
 20
-165.751953125
 30
0.0
 10
51.75439453125
 20
-173.8408203125
 30
0.0
 10
53.52490234375
 20
-177.0
 30
0.0
 10
55.30859375
 20
-180.1533203125
 30
0.0
 10
57.322265625
 20
-183.728515625
 30
0.0
 10
50.58154296875
 20
-177.1298828125
 30
0.0
 10
55.30859375
 20
-180.1533203125
 30
0.0
 10
57.322265625
 20
-183.728515625
 30
0.0
  0
HATCH
  5
4D
330
3C
100
AcDbEntity
  8
Layer 1
 62
     7
420
 16777215
100
AcDbHatch
 10
0.0
 20
0.0
 30
0.0
210
0.0
220
0.0
230
1.0
  2
SOLID
 70
     1
 71
     0
 91
        1
 92
        1
 93
        1
 72
     4
 94
        3
 73
     0
 74
     1
 95
       47
 96
       43
 40
0.0
 40
0.0
 40
0.0
 40
0.0
 40
1.0
 40
1.0
 40
1.0
 40
2.0
 40
2.0
 40
2.0
 40
3.0
 40
3.0
 40
3.0
 40
4.0
 40
4.0
 40
4.0
 40
5.0
 40
5.0
 40
5.0
 40
6.0
 40
6.0
 40
6.0
 40
7.0
 40
7.0
 40
7.0
 40
8.0
 40
8.0
 40
8.0
 40
9.0
 40
9.0
 40
9.0
 40
10.0
 40
10.0
 40
10.0
 40
11.0
 40
11.0
 40
11.0
 40
12.0
 40
12.0
 40
12.0
 40
13.0
 40
13.0
 40
13.0
 40
14.0
 40
14.0
 40
14.0
 40
14.0
 10
57.322265625
 20
-183.728515625
 10
50.58154296875
 20
-177.1298828125
 10
45.90380859375
 20
-169.67578125
 10
41.66845703125
 20
-161.9697265625
 10
39.61572265625
 20
-158.234375
 10
37.68603515625
 20
-154.421875
 10
36.07666015625
 20
-150.47265625
 10
34.42724609375
 20
-146.423828125
 10
33.0224609375
 20
-142.25
 10
31.646484375
 20
-138.1015625
 10
30.267578125
 20
-133.9443359375
 10
29.025390625
 20
-129.7353515625
 10
28.11279296875
 20
-125.44921875
 10
27.6650390625
 20
-123.3466796875
 10
27.38525390625
 20
-121.2265625
 10
27.01171875
 20
-119.1123046875
 10
26.78857421875
 20
-117.849609375
 10
25.560546875
 20
-114.8037109375
 10
27.74267578125
 20
-114.63671875
 10
29.7744140625
 20
-114.482421875
 10
31.81103515625
 20
-114.390625
 10
33.84521484375
 20
-114.263671875
 10
34.85009765625
 20
-114.2001953125
 10
35.39599609375
 20
-114.71484375
 10
35.42236328125
 20
-115.71875
 10
35.46337890625
 20
-117.251953125
 10
35.54052734375
 20
-118.78515625
 10
35.6513671875
 20
-120.314453125
 10
35.88134765625
 20
-123.4853515625
 10
36.25732421875
 20
-126.6455078125
 10
36.75390625
 20
-129.78515625
 10
37.75
 20
-136.076171875
 10
39.2314453125
 20
-142.283203125
 10
40.982421875
 20
-148.404296875
 10
43.53662109375
 20
-157.330078125
 10
47.22021484375
 20
-165.751953125
 10
51.75439453125
 20
-173.8408203125
 10
53.52490234375
 20
-177.0
 10
55.30859375
 20
-180.1533203125
 10
57.322265625
 20
-183.728515625
 10
50.58154296875
 20
-177.1298828125
 10
55.30859375
 20
-180.1533203125
 10
57.322265625
 20
-183.728515625
 97
        0
 75
     0
 76
     1
 98
        0
  0
SPLINE
  5
4E
330
3C
100
AcDbEntity
  8
Layer 1
370
     0
100
AcDbSpline
210
0.0
220
0.0
230
1.0
 70
    11
 71
     3
 72
    53
 73
    49
 74
     0
 42
0.0000000001
 43
0.0000000001
 40
0.0
 40
0.0
 40
0.0
 40
0.0
 40
1.0
 40
1.0
 40
1.0
 40
2.0
 40
2.0
 40
2.0
 40
3.0
 40
3.0
 40
3.0
 40
4.0
 40
4.0
 40
4.0
 40
5.0
 40
5.0
 40
5.0
 40
6.0
 40
6.0
 40
6.0
 40
7.0
 40
7.0
 40
7.0
 40
8.0
 40
8.0
 40
8.0
 40
9.0
 40
9.0
 40
9.0
 40
10.0
 40
10.0
 40
10.0
 40
11.0
 40
11.0
 40
11.0
 40
12.0
 40
12.0
 40
12.0
 40
13.0
 40
13.0
 40
13.0
 40
14.0
 40
14.0
 40
14.0
 40
15.0
 40
15.0
 40
15.0
 40
16.0
 40
16.0
 40
16.0
 40
16.0
 10
25.33935546875
 20
-98.3916015625
 30
0.0
 10
25.9521484375
 20
-92.177734375
 30
0.0
 10
26.55419921875
 20
-85.962890625
 30
0.0
 10
27.185546875
 20
-79.75
 30
0.0
 10
27.26513671875
 20
-78.9677734375
 30
0.0
 10
27.45654296875
 20
-78.1884765625
 30
0.0
 10
28.3984375
 20
-78.326171875
 30
0.0
 10
29.93115234375
 20
-78.5498046875
 30
0.0
 10
31.48095703125
 20
-79.2431640625
 30
0.0
 10
32.97119140625
 20
-79.669921875
 30
0.0
 10
34.56640625
 20
-80.126953125
 30
0.0
 10
36.16455078125
 20
-80.576171875
 30
0.0
 10
37.75244140625
 20
-81.0576171875
 30
0.0
 10
38.98779296875
 20
-81.4326171875
 30
0.0
 10
40.8154296875
 20
-81.7412109375
 30
0.0
 10
40.22119140625
 20
-83.423828125
 30
0.0
 10
38.8046875
 20
-87.4404296875
 30
0.0
 10
37.51611328125
 20
-91.517578125
 30
0.0
 10
36.7255859375
 20
-95.708984375
 30
0.0
 10
36.32666015625
 20
-97.8212890625
 30
0.0
 10
36.14306640625
 20
-99.943359375
 30
0.0
 10
35.9091796875
 20
-102.078125
 30
0.0
 10
35.6748046875
 20
-104.212890625
 30
0.0
 10
35.34765625
 20
-106.337890625
 30
0.0
 10
35.13818359375
 20
-108.4765625
 30
0.0
 10
34.9482421875
 20
-110.4169921875
 30
0.0
 10
33.783203125
 20
-110.537109375
 30
0.0
 10
32.06005859375
 20
-110.568359375
 30
0.0
 10
31.0576171875
 20
-110.5869140625
 30
0.0
 10
30.05419921875
 20
-110.5771484375
 30
0.0
 10
29.0517578125
 20
-110.5703125
 30
0.0
 10
28.3212890625
 20
-110.56640625
 30
0.0
 10
27.07177734375
 20
-110.8251953125
 30
0.0
 10
26.52734375
 20
-110.18359375
 30
0.0
 10
26.14111328125
 20
-109.7275390625
 30
0.0
 10
26.171875
 20
-109.0205078125
 30
0.0
 10
26.1416015625
 20
-108.462890625
 30
0.0
 10
26.078125
 20
-107.306640625
 30
0.0
 10
26.01904296875
 20
-106.1513671875
 30
0.0
 10
25.96142578125
 20
-104.9951171875
 30
0.0
 10
25.85302734375
 20
-102.8125
 30
0.0
 10
25.75146484375
 20
-100.62890625
 30
0.0
 10
25.64501953125
 20
-98.4453125
 30
0.0
 10
25.54345703125
 20
-98.427734375
 30
0.0
 10
25.44091796875
 20
-98.41015625
 30
0.0
 10
25.33935546875
 20
-98.3916015625
 30
0.0
 10
25.9521484375
 20
-92.177734375
 30
0.0
 10
25.44091796875
 20
-98.41015625
 30
0.0
 10
25.33935546875
 20
-98.3916015625
 30
0.0
  0
HATCH
  5
4F
330
3C
100
AcDbEntity
  8
Layer 1
 62
     7
420
 16777215
100
AcDbHatch
 10
0.0
 20
0.0
 30
0.0
210
0.0
220
0.0
230
1.0
  2
SOLID
 70
     1
 71
     0
 91
        1
 92
        1
 93
        1
 72
     4
 94
        3
 73
     0
 74
     1
 95
       53
 96
       49
 40
0.0
 40
0.0
 40
0.0
 40
0.0
 40
1.0
 40
1.0
 40
1.0
 40
2.0
 40
2.0
 40
2.0
 40
3.0
 40
3.0
 40
3.0
 40
4.0
 40
4.0
 40
4.0
 40
5.0
 40
5.0
 40
5.0
 40
6.0
 40
6.0
 40
6.0
 40
7.0
 40
7.0
 40
7.0
 40
8.0
 40
8.0
 40
8.0
 40
9.0
 40
9.0
 40
9.0
 40
10.0
 40
10.0
 40
10.0
 40
11.0
 40
11.0
 40
11.0
 40
12.0
 40
12.0
 40
12.0
 40
13.0
 40
13.0
 40
13.0
 40
14.0
 40
14.0
 40
14.0
 40
15.0
 40
15.0
 40
15.0
 40
16.0
 40
16.0
 40
16.0
 40
16.0
 10
25.33935546875
 20
-98.3916015625
 10
25.9521484375
 20
-92.177734375
 10
26.55419921875
 20
-85.962890625
 10
27.185546875
 20
-79.75
 10
27.26513671875
 20
-78.9677734375
 10
27.45654296875
 20
-78.1884765625
 10
28.3984375
 20
-78.326171875
 10
29.93115234375
 20
-78.5498046875
 10
31.48095703125
 20
-79.2431640625
 10
32.97119140625
 20
-79.669921875
 10
34.56640625
 20
-80.126953125
 10
36.16455078125
 20
-80.576171875
 10
37.75244140625
 20
-81.0576171875
 10
38.98779296875
 20
-81.4326171875
 10
40.8154296875
 20
-81.7412109375
 10
40.22119140625
 20
-83.423828125
 10
38.8046875
 20
-87.4404296875
 10
37.51611328125
 20
-91.517578125
 10
36.7255859375
 20
-95.708984375
 10
36.32666015625
 20
-97.8212890625
 10
36.14306640625
 20
-99.943359375
 10
35.9091796875
 20
-102.078125
 10
35.6748046875
 20
-104.212890625
 10
35.34765625
 20
-106.337890625
 10
35.13818359375
 20
-108.4765625
 10
34.9482421875
 20
-110.4169921875
 10
33.783203125
 20
-110.537109375
 10
32.06005859375
 20
-110.568359375
 10
31.0576171875
 20
-110.5869140625
 10
30.05419921875
 20
-110.5771484375
 10
29.0517578125
 20
-110.5703125
 10
28.3212890625
 20
-110.56640625
 10
27.07177734375
 20
-110.8251953125
 10
26.52734375
 20
-110.18359375
 10
26.14111328125
 20
-109.7275390625
 10
26.171875
 20
-109.0205078125
 10
26.1416015625
 20
-108.462890625
 10
26.078125
 20
-107.306640625
 10
26.01904296875
 20
-106.1513671875
 10
25.96142578125
 20
-104.9951171875
 10
25.85302734375
 20
-102.8125
 10
25.75146484375
 20
-100.62890625
 10
25.64501953125
 20
-98.4453125
 10
25.54345703125
 20
-98.427734375
 10
25.44091796875
 20
-98.41015625
 10
25.33935546875
 20
-98.3916015625
 10
25.9521484375
 20
-92.177734375
 10
25.44091796875
 20
-98.41015625
 10
25.33935546875
 20
-98.3916015625
 97
        0
 75
     0
 76
     1
 98
        0
  0
ENDBLK
  5
3F
330
3C
100
AcDbEntity
  8
0
100
AcDbBlockEnd
  0
ENDSEC
  0
SECTION
  2
ENTITIES
  0
INSERT
  5
3D
330
1F
100
AcDbEntity
  8
Layer 1
100
AcDbBlockReference
  2
block 2
 10
0.0
 20
0.0
 30
0.0
  0
ENDSEC
  0
SECTION
  2
OBJECTS
  0
DICTIONARY
  5
C
330
0
100
AcDbDictionary
281
     1
  3
ACAD_GROUP
350
D
  3
ACAD_LAYOUT
350
1A
  3
ACAD_MLINESTYLE
350
17
  3
ACAD_PLOTSETTINGS
350
19
  3
ACAD_PLOTSTYLENAME
350
E
  3
ACAD_TABLESTYLE
350
50
  3
ACAD_VISUALSTYLE
350
2A
  0
DICTIONARY
  5
D
102
{ACAD_REACTORS
330
C
102
}
330
C
100
AcDbDictionary
281
     1
  0
DICTIONARY
  5
1A
102
{ACAD_REACTORS
330
C
102
}
330
C
100
AcDbDictionary
281
     1
  3
Layout1
350
1E
  3
Layout2
350
26
  3
Model
350
22
  0
DICTIONARY
  5
17
102
{ACAD_REACTORS
330
C
102
}
330
C
100
AcDbDictionary
281
     1
  3
Standard
350
18
  0
DICTIONARY
  5
19
102
{ACAD_REACTORS
330
C
102
}
330
C
100
AcDbDictionary
281
     1
  0
ACDBDICTIONARYWDFLT
  5
E
102
{ACAD_REACTORS
330
C
102
}
330
C
100
AcDbDictionary
281
     1
  3
Normal
350
F
100
AcDbDictionaryWithDefault
340
F
  0
DICTIONARY
  5
50
102
{ACAD_REACTORS
330
C
102
}
330
C
100
AcDbDictionary
281
     1
  0
DICTIONARY
  5
2A
102
{ACAD_REACTORS
330
C
102
}
330
C
100
AcDbDictionary
281
     1
  3
2dWireframe
350
2F
  3
3D Hidden
350
31
  3
3dWireframe
350
30
  3
Basic
350
32
  3
Brighten
350
36
  3
ColorChange
350
3A
  3
Conceptual
350
34
  3
Dim
350
35
  3
Facepattern
350
39
  3
Flat
350
2B
  3
FlatWithEdges
350
2C
  3
Gouraud
350
2D
  3
GouraudWithEdges
350
2E
  3
Linepattern
350
38
  3
Realistic
350
33
  3
Thicken
350
37
  0
LAYOUT
  5
1E
102
{ACAD_REACTORS
330
1A
102
}
330
1A
100
AcDbPlotSettings
  1

  2
none_device
  4

  6

 40
0.0
 41
0.0
 42
0.0
 43
0.0
 44
0.0
 45
0.0
 46
0.0
 47
0.0
 48
0.0
 49
0.0
140
0.0
141
0.0
142
1.0
143
1.0
 70
   688
 72
     0
 73
     0
 74
     5
  7

 75
    16
 76
     0
 77
     2
 78
   300
147
1.0
148
0.0
149
0.0
100
AcDbLayout
  1
Layout1
 70
     1
 71
     1
 10
0.0
 20
0.0
 11
12.0
 21
9.0
 12
0.0
 22
0.0
 32
0.0
 14
1.000000000000000E+20
 24
1.000000000000000E+20
 34
1.000000000000000E+20
 15
-1.000000000000000E+20
 25
-1.000000000000000E+20
 35
-1.000000000000000E+20
146
0.0
 13
0.0
 23
0.0
 33
0.0
 16
1.0
 26
0.0
 36
0.0
 17
0.0
 27
1.0
 37
0.0
 76
     0
330
1B
  0
LAYOUT
  5
26
102
{ACAD_REACTORS
330
1A
102
}
330
1A
100
AcDbPlotSettings
  1

  2
none_device
  4

  6

 40
0.0
 41
0.0
 42
0.0
 43
0.0
 44
0.0
 45
0.0
 46
0.0
 47
0.0
 48
0.0
 49
0.0
140
0.0
141
0.0
142
1.0
143
1.0
 70
   688
 72
     0
 73
     0
 74
     5
  7

 75
    16
 76
     0
 77
     2
 78
   300
147
1.0
148
0.0
149
0.0
100
AcDbLayout
  1
Layout2
 70
     1
 71
     2
 10
0.0
 20
0.0
 11
0.0
 21
0.0
 12
0.0
 22
0.0
 32
0.0
 14
0.0
 24
0.0
 34
0.0
 15
0.0
 25
0.0
 35
0.0
146
0.0
 13
0.0
 23
0.0
 33
0.0
 16
1.0
 26
0.0
 36
0.0
 17
0.0
 27
1.0
 37
0.0
 76
     0
330
23
  0
LAYOUT
  5
22
102
{ACAD_REACTORS
330
1A
102
}
330
1A
100
AcDbPlotSettings
  1

  2
none_device
  4

  6

 40
0.0
 41
0.0
 42
0.0
 43
0.0
 44
0.0
 45
0.0
 46
0.0
 47
0.0
 48
0.0
 49
0.0
140
0.0
141
0.0
142
1.0
143
1.0
 70
  1712
 72
     0
 73
     0
 74
     0
  7

 75
     0
 76
     0
 77
     2
 78
   300
147
1.0
148
0.0
149
0.0
100
AcDbLayout
  1
Model
 70
     1
 71
     0
 10
0.0
 20
0.0
 11
12.0
 21
9.0
 12
0.0
 22
0.0
 32
0.0
 14
1.000000000000000E+20
 24
1.000000000000000E+20
 34
1.000000000000000E+20
 15
-1.000000000000000E+20
 25
-1.000000000000000E+20
 35
-1.000000000000000E+20
146
0.0
 13
0.0
 23
0.0
 33
0.0
 16
1.0
 26
0.0
 36
0.0
 17
0.0
 27
1.0
 37
0.0
 76
     0
330
1F
331
29
  0
MLINESTYLE
  5
18
102
{ACAD_REACTORS
330
17
102
}
330
17
100
AcDbMlineStyle
  2
Standard
 70
     0
  3

 62
   256
 51
90.0
 52
90.0
 71
     2
 49
0.5
 62
   256
  6
BYLAYER
 49
-0.5
 62
   256
  6
BYLAYER
  0
ACDBPLACEHOLDER
  5
F
102
{ACAD_REACTORS
330
E
102
}
330
E
  0
VISUALSTYLE
  5
2F
102
{ACAD_REACTORS
330
2A
102
}
330
2A
100
AcDbVisualStyle
  2
2dWireframe
 70
     4
 71
     0
 72
     2
 73
     0
 90
        0
 40
-0.6
 41
-30.0
 62
     5
 63
     7
421
 16777215
 74
     1
 91
        4
 64
     7
 65
   257
 75
     1
175
     1
 42
1.0
 92
        0
 66
   257
 43
1.0
 76
     1
 77
     6
 78
     2
 67
     7
 79
     5
170
     0
171
     0
290
     0
174
     0
 93
        1
 44
0.0
173
     0
291
     0
 45
0.0
1001
ACAD
1000
AcDbSavedByObjectVersion
1070
     0
  0
VISUALSTYLE
  5
31
102
{ACAD_REACTORS
330
2A
102
}
330
2A
100
AcDbVisualStyle
  2
3D Hidden
 70
     6
 71
     1
 72
     2
 73
     2
 90
        0
 40
-0.6
 41
-30.0
 62
     5
 63
     7
421
 16777215
 74
     2
 91
        2
 64
     7
 65
   257
 75
     2
175
     1
 42
40.0
 92
        0
 66
   257
 43
1.0
 76
     1
 77
     6
 78
     2
 67
     7
 79
     3
170
     0
171
     0
290
     0
174
     0
 93
        1
 44
0.0
173
     0
291
     0
 45
0.0
1001
ACAD
1000
AcDbSavedByObjectVersion
1070
     0
  0
VISUALSTYLE
  5
30
102
{ACAD_REACTORS
330
2A
102
}
330
2A
100
AcDbVisualStyle
  2
3dWireframe
 70
     5
 71
     0
 72
     2
 73
     0
 90
        0
 40
-0.6
 41
-30.0
 62
     5
 63
     7
421
 16777215
 74
     1
 91
        4
 64
     7
 65
   257
 75
     1
175
     1
 42
1.0
 92
        0
 66
   257
 43
1.0
 76
     1
 77
     6
 78
     2
 67
     7
 79
     5
170
     0
171
     0
290
     0
174
     0
 93
        1
 44
0.0
173
     0
291
     0
 45
0.0
1001
ACAD
1000
AcDbSavedByObjectVersion
1070
     0
  0
VISUALSTYLE
  5
32
102
{ACAD_REACTORS
330
2A
102
}
330
2A
100
AcDbVisualStyle
  2
Basic
 70
     7
 71
     1
 72
     0
 73
     1
 90
        0
 40
-0.6
 41
-30.0
 62
     5
 63
     7
421
 16777215
 74
     0
 91
        4
 64
     7
 65
   257
 75
     1
175
     1
 42
1.0
 92
        8
 66
     7
 43
1.0
 76
     1
 77
     6
 78
     2
 67
     7
 79
     5
170
     0
171
     0
290
     0
174
     0
 93
        1
 44
0.0
173
     0
291
     1
 45
0.0
1001
ACAD
1000
AcDbSavedByObjectVersion
1070
     0
  0
VISUALSTYLE
  5
36
102
{ACAD_REACTORS
330
2A
102
}
330
2A
100
AcDbVisualStyle
  2
Brighten
 70
    12
 71
     2
 72
     2
 73
     0
 90
        0
 40
-0.6
 41
-30.0
 62
     5
 63
     7
421
 16777215
 74
     1
 91
        4
 64
     7
 65
   257
 75
     1
175
     1
 42
1.0
 92
        8
 66
     7
 43
1.0
 76
     1
 77
     6
 78
     2
 67
     7
 79
     5
170
     0
171
     0
290
     0
174
     0
 93
        1
 44
50.0
173
     0
291
     1
 45
0.0
1001
ACAD
1000
AcDbSavedByObjectVersion
1070
     0
  0
VISUALSTYLE
  5
3A
102
{ACAD_REACTORS
330
2A
102
}
330
2A
100
AcDbVisualStyle
  2
ColorChange
 70
    16
 71
     2
 72
     2
 73
     3
 90
        0
 40
-0.6
 41
-30.0
 62
     5
 63
     8
421
  8421504
 74
     1
 91
        4
 64
     7
 65
   257
 75
     1
175
     1
 42
1.0
 92
        8
 66
     8
424
  8421504
 43
1.0
 76
     1
 77
     6
 78
     2
 67
     7
 79
     5
170
     0
171
     0
290
     0
174
     0
 93
        1
 44
0.0
173
     0
291
     1
 45
0.0
1001
ACAD
1000
AcDbSavedByObjectVersion
1070
     0
  0
VISUALSTYLE
  5
34
102
{ACAD_REACTORS
330
2A
102
}
330
2A
100
AcDbVisualStyle
  2
Conceptual
 70
     9
 71
     3
 72
     2
 73
     0
 90
        0
 40
-0.6
 41
-30.0
 62
     5
 63
     7
421
 16777215
 74
     2
 91
        2
 64
     7
 65
   257
 75
     1
175
     1
 42
40.0
 92
        8
 66
     7
 43
1.0
 76
     1
 77
     6
 78
     2
 67
     7
 79
     3
170
     0
171
     0
290
     0
174
     0
 93
        1
 44
0.0
173
     0
291
     0
 45
0.0
1001
ACAD
1000
AcDbSavedByObjectVersion
1070
     0
  0
VISUALSTYLE
  5
35
102
{ACAD_REACTORS
330
2A
102
}
330
2A
100
AcDbVisualStyle
  2
Dim
 70
    11
 71
     2
 72
     2
 73
     0
 90
        0
 40
-0.6
 41
-30.0
 62
     5
 63
     7
421
 16777215
 74
     1
 91
        4
 64
     7
 65
   257
 75
     1
175
     1
 42
1.0
 92
        8
 66
     7
 43
1.0
 76
     1
 77
     6
 78
     2
 67
     7
 79
     5
170
     0
171
     0
290
     0
174
     0
 93
        1
 44
-50.0
173
     0
291
     1
 45
0.0
1001
ACAD
1000
AcDbSavedByObjectVersion
1070
     0
  0
VISUALSTYLE
  5
39
102
{ACAD_REACTORS
330
2A
102
}
330
2A
100
AcDbVisualStyle
  2
Facepattern
 70
    15
 71
     2
 72
     2
 73
     0
 90
        0
 40
-0.6
 41
-30.0
 62
     5
 63
     7
421
 16777215
 74
     1
 91
        4
 64
     7
 65
   257
 75
     1
175
     1
 42
1.0
 92
        8
 66
     7
 43
1.0
 76
     1
 77
     6
 78
     2
 67
     7
 79
     5
170
     0
171
     0
290
     0
174
     0
 93
        1
 44
0.0
173
     0
291
     1
 45
0.0
1001
ACAD
1000
AcDbSavedByObjectVersion
1070
     0
  0
VISUALSTYLE
  5
2B
102
{ACAD_REACTORS
330
2A
102
}
330
2A
100
AcDbVisualStyle
  2
Flat
 70
     0
 71
     2
 72
     1
 73
     1
 90
        2
 40
-0.6
 41
30.0
 62
     5
 63
     7
421
 16777215
 74
     0
 91
        4
 64
     7
 65
   257
 75
     1
175
     1
 42
1.0
 92
        8
 66
     7
 43
1.0
 76
     1
 77
     6
 78
     2
 67
     7
 79
     5
170
     0
171
     0
290
     0
174
     0
 93
       13
 44
0.0
173
     0
291
     1
 45
0.0
1001
ACAD
1000
AcDbSavedByObjectVersion
1070
     0
  0
VISUALSTYLE
  5
2C
102
{ACAD_REACTORS
330
2A
102
}
330
2A
100
AcDbVisualStyle
  2
FlatWithEdges
 70
     1
 71
     2
 72
     1
 73
     1
 90
        2
 40
-0.6
 41
30.0
 62
     5
 63
     7
421
 16777215
 74
     1
 91
        4
 64
     7
 65
   257
 75
     1
175
     1
 42
1.0
 92
        0
 66
   257
 43
1.0
 76
     1
 77
     6
 78
     2
 67
     7
 79
     5
170
     0
171
     0
290
     0
174
     0
 93
       13
 44
0.0
173
     0
291
     1
 45
0.0
1001
ACAD
1000
AcDbSavedByObjectVersion
1070
     0
  0
VISUALSTYLE
  5
2D
102
{ACAD_REACTORS
330
2A
102
}
330
2A
100
AcDbVisualStyle
  2
Gouraud
 70
     2
 71
     2
 72
     2
 73
     1
 90
        2
 40
-0.6
 41
30.0
 62
     5
 63
     7
421
 16777215
 74
     0
 91
        4
 64
     7
 65
   257
 75
     1
175
     1
 42
1.0
 92
        0
 66
     7
 43
1.0
 76
     1
 77
     6
 78
     2
 67
     7
 79
     5
170
     0
171
     0
290
     0
174
     0
 93
       13
 44
0.0
173
     0
291
     1
 45
0.0
1001
ACAD
1000
AcDbSavedByObjectVersion
1070
     0
  0
VISUALSTYLE
  5
2E
102
{ACAD_REACTORS
330
2A
102
}
330
2A
100
AcDbVisualStyle
  2
GouraudWithEdges
 70
     3
 71
     2
 72
     2
 73
     1
 90
        2
 40
-0.6
 41
30.0
 62
     5
 63
     7
421
 16777215
 74
     1
 91
        4
 64
     7
 65
   257
 75
     1
175
     1
 42
1.0
 92
        0
 66
   257
 43
1.0
 76
     1
 77
     6
 78
     2
 67
     7
 79
     5
170
     0
171
     0
290
     0
174
     0
 93
       13
 44
0.0
173
     0
291
     1
 45
0.0
1001
ACAD
1000
AcDbSavedByObjectVersion
1070
     0
  0
VISUALSTYLE
  5
38
102
{ACAD_REACTORS
330
2A
102
}
330
2A
100
AcDbVisualStyle
  2
Linepattern
 70
    14
 71
     2
 72
     2
 73
     0
 90
        0
 40
-0.6
 41
-30.0
 62
     5
 63
     7
421
 16777215
 74
     1
 91
        4
 64
     7
 65
   257
 75
     7
175
     7
 42
1.0
 92
        8
 66
     7
 43
1.0
 76
     1
 77
     6
 78
     2
 67
     7
 79
     5
170
     0
171
     0
290
     0
174
     0
 93
        1
 44
0.0
173
     0
291
     1
 45
0.0
1001
ACAD
1000
AcDbSavedByObjectVersion
1070
     0
  0
VISUALSTYLE
  5
33
102
{ACAD_REACTORS
330
2A
102
}
330
2A
100
AcDbVisualStyle
  2
Realistic
 70
     8
 71
     2
 72
     2
 73
     0
 90
        0
 40
-0.6
 41
-30.0
 62
     5
 63
     7
421
 16777215
 74
     1
 91
        0
 64
     7
 65
   257
 75
     1
175
     1
 42
1.0
 92
        8
 66
     8
424
  7895160
 43
1.0
 76
     1
 77
     6
 78
     2
 67
     7
 79
     5
170
     0
171
     0
290
     0
174
     0
 93
       13
 44
0.0
173
     0
291
     0
 45
0.0
1001
ACAD
1000
AcDbSavedByObjectVersion
1070
     0
  0
VISUALSTYLE
  5
37
102
{ACAD_REACTORS
330
2A
102
}
330
2A
100
AcDbVisualStyle
  2
Thicken
 70
    13
 71
     2
 72
     2
 73
     0
 90
        0
 40
-0.6
 41
-30.0
 62
     5
 63
     7
421
 16777215
 74
     1
 91
        4
 64
     7
 65
   257
 75
     1
175
     1
 42
1.0
 92
       12
 66
     7
 43
1.0
 76
     1
 77
     6
 78
     2
 67
     7
 79
     5
170
     0
171
     0
290
     0
174
     0
 93
        1
 44
0.0
173
     0
291
     1
 45
0.0
1001
ACAD
1000
AcDbSavedByObjectVersion
1070
     0
  0
ENDSEC
  0
EOF
